Oops, an error
Loading. Please wait.

Potted Plant Chords

1,221 views 1 this week
no commentswrite comment
1 2 3 4 5
please rate
add to favorites
launch autoscroll
font size
0
reset
transpose
0
reset
display chords
guitar tuner
Autoscroll
slow
fast
+/-
esc
set tempo
stop
Help us to improve Ultimate-Guitar.com Take our survey!
×
Difficulty
novice
----------------------------------------------------------------------------
            POTTED PLANT - CAST SPELLS
----------------------------------------------------------------------------

Long live Dave Davison.
Tabbed by Eric Gonzalez.


    C   F   Am  G
e|--0---0---0---3-----------------------------------------------------------|
B|--1---1---1---0-----------------------------------------------------------|
G|--0---2---2---0-----------------------------------------------------------|
D|--2---3---2---0-----------------------------------------------------------|
A|--3-------0---2-----------------------------------------------------------|
E|--------------3-----------------------------------------------------------|



        C                                F
Let's forget the big cold buttons let's see what we can track through with 
C
warm boots
     C                                   F
And with shock ivory helmet eyes we'll watch storming through keyholes in 
     C
your living room
     Am                              G                         C
And then we'll listen to the chatter of our inner architecture now-ow-ow


      C                            F                     C
You swear that photosynthesis is never an intention of a selfish sun
         C                                        F       
And that all the months that start with 'J' should be replaced with under 
      C
represented ones
            C                            F
That's when you'll enlist the animals to join your cause and to begin a 
C
hunger strike
         C                                   F
And for all the crops to scream eclipse and hide until the management does 
C
what they like
                Am                                  F
And that's when you'll take on the foreman role and take the matter into 
         C
your own hands-ands-ands
                 Am                             F
And since you always cursed the sun as selfish won't you let me be your 
       C
potted plant-ant-ant


Am F C (2x)


C                                        F
Let's forget the big cold buttons let's see where we can go now with our 
C
new shoes
     C                                 F       
And with shock ivory helmet eyes we'll watch storming through keyholes in 
     C
your living room
           C                                     F
But since you've endorsed this spectacle there’s not much left for me to 
C
say to you
   C               F                                 C
Until recently it seemed all of the wrong things had eluded you


           Am             F 
That was until you wanted me to

e|--0-----------------------------------------------------------------------|
B|-----3--1--0--------------------------------------------------------------|
G|---------------2--0---------------0---------------------------------------|
D|----------------------3--2--2-----------2---------------------------------|
A|--------------------------------------------------------------------------|
E|--------------------------------------------------------------------------|
Topple all the fences in your neighbors yard(2x)


           Am             F
That was until you wanted me to
Am               F
until you wanted me to

Topple all the fences in your neighbors yard(2x)



Ending Riff:

e|--0------------3--1--0----------------------------------------------------|
B|-----3--1--0--------------------------------------------------------------|
G|--------------------------------------------------------------------------|
D|--------------------------------------------------------------------------|
A|--------------------------------------------------------------------------|
E|--------------------------------------------------------------------------|

Long live Dave Davison.
comments
We did not receive enough feedback on this tab! Please rate:
print report bad tab
1 2 3 4 5
I want to post or [tab]
guest
You may want to rate the tab now too:
select rating
Please do not post tabs as comments. Select "correction" instead!