Oops, an error
Loading. Please wait.

Lifesong Tab

version 2
version 2

Whole song

10,338 views 3 this week
1 commentread comment
1 2 3 4 5
please rate
add to favorites
launch autoscroll
font size
0
reset
how to read this tab
guitar tuner
Autoscroll
slow
fast
+/-
esc
set tempo
stop
Help us to improve Ultimate-Guitar.com Take our survey!
×
Capo
1st fret
                        Casting Crowns
                           Lifesong

capo 1st fret
         Gtr.1
|----------|----------------9-------|----------------9---9--|
|----------|------------------9-----|------------------9----|
|----------|-10h11h13-10h11-----10--|-10h11h13-10h11--------|  x2
|----------|------------------------|-----------------------|
|----------|------------------------|-----------------------|   use delay
|----------|------------------------|-----------------------|

      Gtr.2
|--------------------|--------------------|--------------------|
|--------------------|--------------------|--------------------|
|--------------------|--------------------|--------------------|
|-6-6--6-6--6-6--6-6-|-6-6--6-6--6-6--6-6-|--------------------|
|-4-4--4-4--4-4--4-4-|-4-4--4-4--4-4--4-4-|-8-8--8-8--8-8--8-8-|
|--------------------|--------------------|-6-6--6-6--6-6--6-6-|

|--------------------|--------------------|
|--------------------|--------------------|
|--------------------|--------------------|
|--------------------|--------------------|
|-4-4--4-4--4-4--4-4-|-6-6--6-6--6-6--6-6-|
|-2-2--2-2--2-2--2-2-|-4-4--4-4--4-4--4-4-|


|--------------------|--------------------|
|--------------------|--------------------|
|--------------------|--------------------|
|-6-6--6-6--6-6--6-6-|--------------------|
|-4-4--4-4--4-4--4-4-|-8-8--8-8--8-8--8-8-|
|--------------------|-6-6--6-6--6-6--6-6-|

|--------------------|--------------------|
|--------------------|--------------------|
|--------------------|--------------------|
|--------------------|--------------------|
|-4-4--4-4--4-4--4-4-|-6-6--6-6--6-6--6-6-|
|-2-2--2-2--2-2--2-2-|-4-4--4-4--4-4--4-4-|

|--------------------|--------------------|
|--------------------|--------------------|
|--------------------|--------------------|
|-6-6--6-6--6-6--6-6-|--------------------|
|-4-4--4-4--4-4--4-4-|-8-8--8-8--8-8--8-8-|
|--------------------|-6-6--6-6--6-6--6-6-|

|--------------------|--------------------|
|--------------------|--------------------|
|--------------------|--------------------|
|--------------------|--------------------|
|-6-6--6-6--6-6--6-6-|-4-4--4-4--4-4--4-4-|
|-4-4--4-4--4-4--4-4-|-2-2--2-2--2-2--2-2-|
chorus with distortion
     Gtr.2 plays 
         C                      G
Gtr.1                3   3    3      3   3    3
|-----------------|-888-999-111111--888-999-111111--|
|-----------------|---------------------------------|
|-----------------|---------------------------------|
|-----------------|---------------------------------|
|-----------------|---------------------------------|
|-----------------|---------------------------------|

          Am                     F                     F  G  Am  F  D  F  C
                     3   3   3    3   3   3
|-----------------|-222-444-666--222-444-666--------|
|-----------------|---------------------------------|
|-----------------|---------------------------------|
|-----------------|---------------------------------|
|-----------------|---------------------------------|
|-----------------|---------------------------------|


    Gtr.1
|----------------9-------|----------------9---9--|
|------------------9-----|------------------9----|
|-10h11h13-10h11-----10--|-10h11h13-10h11--------|  x2
|------------------------|-----------------------|      Use delay
|------------------------|-----------------------|
|------------------------|-----------------------|

   Gtr.2
|--------------------|--------------------|
|--------------------|--------------------|
|--------------------|--------------------|
|-6-6--6-6--6-6--6-6-|--------------------|
|-4-4--4-4--4-4--4-4-|-8-8--8-8--8-8--8-8-|
|--------------------|-6-6--6-6--6-6--6-6-|

|--------------------|--------------------|
|--------------------|--------------------|
|--------------------|--------------------|
|--------------------|--------------------|
|-6-6--6-6--6-6--6-6-|-4-4--4-4--4-4--4-4-|
|-4-4--4-4--4-4--4-4-|-2-2--2-2--2-2--2-2-|


|--------------------|--------------------|
|--------------------|--------------------|
|--------------------|--------------------|
|-6-6--6-6--6-6--6-6-|--------------------|
|-4-4--4-4--4-4--4-4-|-8-8--8-8--8-8--8-8-|
|--------------------|-6-6--6-6--6-6--6-6-|

|--------------------|--------------------|
|--------------------|--------------------|
|--------------------|--------------------|
|--------------------|--------------------|
|-4-4--4-4--4-4--4-4-|-6-6--6-6--6-6--6-6-|
|-2-2--2-2--2-2--2-2-|-4-4--4-4--4-4--4-4-|

|--------------------|--------------------|
|--------------------|--------------------|
|--------------------|--------------------|
|-6-6--6-6--6-6--6-6-|--------------------|
|-4-4--4-4--4-4--4-4-|-8-8--8-8--8-8--8-8-|
|--------------------|-6-6--6-6--6-6--6-6-|

|--------------------|--------------------|
|--------------------|--------------------|
|--------------------|--------------------|
|--------------------|--------------------|
|-6-6--6-6--6-6--6-6-|-4-4--4-4--4-4--4-4-|
|-4-4--4-4--4-4--4-4-|-2-2--2-2--2-2--2-2-|
chorus with distortion
     Gtr.2 plays 
         C                      G
Gtr.1                3   3    3      3   3    3
|-----------------|-888-999-111111--888-999-111111--|
|-----------------|---------------------------------|
|-----------------|---------------------------------|
|-----------------|---------------------------------|
|-----------------|---------------------------------|
|-----------------|---------------------------------|

          Am                     F                     F  G  Am  F  D  F  C
                     3   3   3    3   3   3
|-----------------|-222-444-666--222-444-666--------|
|-----------------|---------------------------------|
|-----------------|---------------------------------|
|-----------------|---------------------------------|
|-----------------|---------------------------------|
|-----------------|---------------------------------|

Bridge play on last time
F C Am G  F G Am G

chorus with distortion
     Gtr.2 plays 
         C                      G
Gtr.1                3   3    3      3   3    3
|-----------------|-888-999-111111--888-999-111111--|
|-----------------|---------------------------------|
|-----------------|---------------------------------|
|-----------------|---------------------------------|
|-----------------|---------------------------------|
|-----------------|---------------------------------|

          Am                     F                     F  G  Am  F  D  F  C
                     3   3   3    3   3   3
|-----------------|-222-444-666--222-444-666--------|
|-----------------|---------------------------------|
|-----------------|---------------------------------|
|-----------------|---------------------------------|   X2
|-----------------|---------------------------------|
|-----------------|---------------------------------|

Gtr.2 plays  C                        Am

Gtr.1
|----------------9---9------|-----------------9---9---------|
|------------------9--------|-------------------9---9~------|
|-10h11h13-10h11-------10~--|-10h11h13-10h11----------------|
|---------------------------|-------------------------------|  with delay
|---------------------------|-------------------------------|
|---------------------------|-------------------------------|

           G                           F  

|-----------------9---9--------|-----------------9---9-----9---9---9~-|
|-------------------9----------|-------------------9---9-----9---9----|
|-10h11h13-10h11--------10-8~--|-10h11h13-10h11-----------------------|
|------------------------------|--------------------------------------|
|------------------------------|--------------------------------------|
|------------------------------|--------------------------------------|

Gtr.2
|--------------------|--------------------|
|--------------------|--------------------|
|--------------------|--------------------|
|-6-6--6-6--6-6--6-6-|-6-6--6-6--6-6--6-6-|
|-4-4--4-4--4-4--4-4-|-4-4--4-4--4-4--4-4-|
|--------------------|--------------------|
Suggest correction
What's this?
You can suggest a correction to this tab. Community and Mods will review your correction and vote to approve or reject it.
comments
We did not receive enough feedback on this tab! Please rate:
print report bad tab
1 2 3 4 5
1 comment total.
0 reply
yoyoyyoyy 12 wrote on December 10 2015, 07:47 pm

Love this song!

guest
You may want to rate the tab now too:
select rating
Please do not post tabs as comments. Select "correction" instead!