Oops, an error
Loading. Please wait.

What This World Needs bass

version 4
version 4

Whole song

58 views 6 this week
no commentswrite comment
1 2 3 4 5
3 more votes to show rating
add to favorites
×
Save as Personal and add changes to this tab that will be seen only by you. Learn more ›
×
You can save this tab as Personal to edit and correct it or add notes. All changes will be seen only by you. Learn more »
launch autoscroll
font size
0
reset
guitar tuner
edit
Autoscroll
slow
fast
+/-
esc
set tempo
stop
Author
Difficulty
About this tab version
Tabbed song in order in standard tuning with rhymth and all fills, etc. Was this info helpful? Yes No
[Intro] (0:00)
G|------------------------|
D|------------------------|
A|------------------------|
E|------------------------| (x4)

G|------------------------|------------------------|------------------------|------------------------|
D|------------------------|------------------------|10-10-10-10-10-10-10-10-|10-10-10-10-10-10-10----|
A|12-12-10-12----10-12-10-|12-12-10-12----10-12-12-|------------------------|------------------------|
E|------------------------|------------------------|------------------------|------------------------|

G|------------------------|------------------------|------------------------|------------------------|
D|------------------------|------------------------|------------------------|------10-12-10----------|
A|------------------------|------------------------|8--8--8--8--8--8--8--8--|8--10----------12-10-8--|
E|10-10-10-10-10-8--10-8--|10-10-8--10----8--10-10-|------------------------|------------------------|

G|------------------------|------------------------|------------------------|------------------------|
D|------------------------|------------------------|10-10-10-10-10-10-10-10-|10-10-10-10-10-10-10----|
A|12-12-10-12----------10-|12-12-10-12----10-12-12-|------------------------|------------------------|
E|---------------10-12----|------------------------|------------------------|------------------------|

G|------------------------|------------------------|------------------------|------------------------|
D|------------------------|------------------------|------------------------|------------------------|
A|------------------------|------------------------|8--8--8--8--8--8--8\----|------------------------|
E|10-10-10-10-10-8--10-8--|10-10-8--10----8--10-10-|------------------------|1--1--1--1--3-----3-----|


[Verse 1] (0:34)
G|------------------------|------------------------|------------------------|------------------------|
D|------------------------|------------------------|------------------------|------------------------|
A|12----12----12-12-12----|------------------------|8-----8-----8--8--8--10-|------10----10-10----10-|
E|---------------------12-|------12----12-12-12----|------------------------|------------------12----|

G|------------------------|------------------------|------------------------|------------------------|
D|------------------------|------------------------|------------------------|------------------------|
A|12----12----12-12-12----|------------------------|---------------------8--|---8--8-----8--8--7-----|
E|---------------------8--|------8-----8--8--8-----|10----10----10-10-10----|------------------------|

G|------------------------|------------------------|------------------------|------------------------|
D|------------------------|------------------------|------------------------|---------------------10-|
A|12----12----12-12-12----|------------------------|8-----8-----8--8--8--10-|------10----10----10----|
E|---------------------12-|---12-12----12-12-12-12-|------------------------|---------------12-------|

G|------------------------|------------------------|------------------------|------------------------|
D|------------------------|------------------------|------------------------|------------------------|
A|12----12----12-12-12----|------------------------|------------------------|8\----------------------|
E|---------------------8--|---8--8-----8--8--8--8--|10----10----10-10-10-10-|------------------------|


[Chorus] (1:01)
G|------------------------|------------------------|------------------------|------------------------|
D|------------------------|------------------------|------------------------|------------------------|
A|8--8--8--8--8--8--8--8--|------------------------|10-10-10-10-10-10-10-10-|12-12-10-12-12-10-12----|
E|------------------------|10-10-10-10-10-10-10-10-|------------------------|------------------------|

G|------------------------|------------------------|------------------------|------------------------|
D|------------------------|------------------------|------------------------|---10-12-10-------------|
A|8--8--8--8--8--8--8--8--|------------------------|10-10-10-10-10-10----10-|12----------12-10-12----|
E|------------------------|10-10-10-10-10-10-10-10-|------------------12----|------------------------|

G|------------------------|------------------------|------------------------|------------------------|
D|------------------------|------------------------|------------------------|------------------------|
A|8--8--8--8--8--8--8--8--|------------------------|10-10-10-10-10----10----|12-12-10-12-12-10-12----|
E|------------------------|10-10-10-10-10-10-10-10-|---------------12----12-|------------------------|

G|------------------------|------------------------|------------------------|------------------------|
D|------------------------|------------------------|------------------------|------------------------|
A|8--8--8--8--8--8--8--8--|8--8--8--8--8--8-----8--|10-10-10-10-10-10-10\---|------------------------|
E|------------------------|------------------10----|------------------------|3--3--3--3--3-----3/----|


[Interlude] (1:28)
G|------------------------|------------------------|------------------------|------------------------|
D|------------------------|------------------------|10-10-10-10-10-9--10-9--|10-10-9--10-10-9--10----|
A|12-12-10-12-12-------10-|12-12-10-12-12-10-12-12-|------------------------|------------------------|
E|---------------10-12----|------------------------|------------------------|------------------------|

G|------------------------|------------------------|------------------------|------------------------|
D|------------------------|------------------------|------------------------|------------------------|
A|------------------------|------------------------|8--8--8--8--8--8--8\----|------------------------|
E|10-10-8--10-10-8--10-8--|10-10-8--10-10-8--10-10-|------------------------|1--1--1--1--3-----3-----|


[Verse 2] (1:42)
G|------------------------|------------------------|------------------------|------------------------|
D|------------------------|------------------------|------------------------|------------------------|
A|12----12----12-12-12----|------------------------|8-----8-----8--8--8--10-|---10-10----10-10----10-|
E|---------------------12-|12-12-12----12-12-12----|------------------------|------------------12----|

G|------------------------|------------------------|------------------------|------------------------|
D|------------------------|------------------------|------------------------|------------------------|
A|12----12----12-12-12----|------------------------|------------------------|---------------------10-|
E|---------------------8--|---8--8-----8--8--8-----|10----10----10-10-10-13-|---13-15-13-12-10-12----|

G|------------------------|------------------------|------------------------|------------------------|
D|------------------------|------------------------|------------------------|------------------12-10-|
A|12----12----12-12-12----|------------------------|8-----8-----8--8--8--10-|---10-10-10----10-------|
E|---------------------12-|---12-12----12-12-10-12-|------------------------|------------12----------|

G|------------------------|------------------------|------------------------|------------------------|
D|------------------------|------------------------|------------------------|------------------------|
A|12----12----12-12-12----|------------------------|------------------------|8\----------------------|
E|---------------------8--|---8--8-----8--8--7--8--|10----10----10-10-10-10-|------------------------|


[Chorus] (2:09)
G|------------------------|------------------------|------------------------|------------------------|
D|------------------------|------------------------|------------------------|------------------------|
A|8--8--8--8--8--8--8--8--|------------------------|10-10-10-10-10-10-10-10-|12-12-10-12-12-10-12----|
E|------------------------|10-10-10-10-10-10-10-10-|------------------------|------------------------|

G|------------------------|------------------------|------------------------|---------12-14----------|
D|------------------------|------------------------|------------------------|---12-14-------14-------|
A|8--8--8--8--8--8--8--8--|------------------------|10-10-10-10-10-10-10-10-|12----------------12----|
E|------------------------|10-10-10-10-10-10-10-10-|------------------------|------------------------|

G|------------------------|------------------------|------------------------|------------------------|
D|------------------------|------------------------|------------------------|------------------------|
A|8--8--8--8--8--8--8--8--|------------------------|10-10-10-10-10----10-10-|12-12-14-15-14-12-10-12-|
E|------------------------|10-10-10-10-10-10-10-10-|---------------12-------|------------------------|

G|------------------------|------------------------|------------------------|------------------------|
D|------------------------|------------------------|------------------------|------------------------|
A|8--8--8--8--8--8--8--8--|8--8--8--8--8--8--8--8\-|------------------------|10-10-10\---------------|
E|------------------------|------------------------|3--3--3--3--3--3--3--3/-|------------1-----1-----|


[Bridge] (2:37)
G|------------------------|------------------------|------------------------|------------------------|
D|15----------------------|\12---------------------|/17---------------------|\19---------------------|
A|------------------------|------------------------|------------------------|------------------------|
E|------------------------|------------------------|------------------------|------------------------|

G|------------------------|------------------------|------------------------|------------------------|
D|\15---------------------|\12---------------------|/17---------------------|------------------------|
A|------------------------|------------------------|------------------------|\12------12-------12----|
E|------------------------|------------------------|------------------------|------------------------|

G|------------------------|------------------------|------------------------|------------------------|
D|/15------15-------15----|\12------12-------12----|/17------17-------17----|/19------19-------19----|
A|------------------------|------------------------|------------------------|------------------------|
E|------------------------|------------------------|------------------------|------------------------|

G|------------------------|------------------------|------------------------|------------------------|
D|\15------15-------15----|\12------12-------12----|\5-------5\-------------|------------------------|
A|------------------------|------------------------|------------------------|10-10-10-10-10-10-10-10-|
E|------------------------|------------------------|------------------3/----|------------------------|


[Solo] (3:05)
G|------------------------|------------------------|------------------------|------------------------|
D|------14----12-14-------|------------10----------|------------10-10-------|------10-12-10----------|
A|12-12----12-------14-12-|---12-10-12----12-10----|------10----------10----|---10----------10-------|
E|------------------------|---------------------12-|8--8-----8-----------8--|------------------12-10-|

G|------------------------|------------------------|------------------------|------------------------|
D|------------12-12-------|------12h14p12----------|------10----9h10--------|---10-9--10-12-10-9-----|
A|------12----------12----|---------------12-------|8--8-----8--------10-8--|---------------------10-|
E|10-10----10----------10-|------------------12-10-|------------------------|------------------------|

G|------------------------|------------------------|------------------------|------------------------|
D|------14----12-14-------|------------10----------|------------10-10-------|------10-12-10----------|
A|12-12----12-------14-12-|---12-10-12----12-10----|------10----------10----|---10----------10-------|
E|------------------------|---------------------12-|8--8-----8-----------8--|------------------10-8--|

G|------------------------|------------------------|------------------------|------------------------|
D|------------12-12-------|------12-14-12----------|------10----9h10-----10-|------------------------|
A|------12----------12----|---12----------12-------|8--8-----8--------10----|8--8--8--8\-------------|
E|10-10----10----------10-|---------------------10-|------------------------|------------3-----3-----|


[Chorus Final] (3:31)
G|------------------------|------------------------|------------------------|------------------------|
D|------------------------|------------------------|------------------------|------------------------|
A|8--8--8--8--8--8--8--8--|------------------------|10-10----10-10----10----|12-12-10-12-12-10-12----|
E|------------------------|10-10-10-10-10-10-10-10-|------12-------12----12-|------------------------|

G|------------------------|------------------------|------------------------|9--9--------------------|
D|------------------------|------------------------|------------------------|------12-12-10-9--------|
A|8--8--8--8--8--8--8--8--|------------------------|10-10-10-10-10-10-10-10-|------------------12-10-|
E|------------------------|10-10-10-10-10-10-10-10-|------------------------|------------------------|

G|------------------------|------------------------|------------------------|------------12-14-------|
D|------------------------|------------------------|---------10-9-----------|---10-12-14-------14\---|
A|8--8--8--8--8--8--8--8--|------------------------|10-10-10-------10----10-|12----------------------|
E|------------------------|10-10-10-10-10-10-10-10-|------------------12----|------------------------|

G|------------------------|------------------------|------------------------|------12----------------|
D|------------------------|------------------------|------------------------|---12----12----12-------|
A|8--8--8--8--8--8--8--8\-|------------------------|------------------3/10--|10----------10----10\---|
E|------------------------|1--1--1--1--1--1--1--1/-|3--3--3--3--3--3--------|------------------------|

G|------------------------|------------------------|------------------------|------------------------|
D|------------------------|------------------------|------------------------|------------------------|
A|8-----8-----8--8--8--8--|8--8--8--8--8--8-----8--|10----10----10-10-10-10-|10-10-10-10-10-10-8--10-|
E|------------------------|------------------10----|------------------------|------------------------|

G|------------------------|------------------------|------------------------|------------------------|
D|------------------------|------------------------|------------------------|------------------------|
A|12----12-10-12----10-12-|---10-12----12-12-10-12-|14----14----14-14-12-14-|---12-14p12\------------|
E|------------------------|------------------------|------------------------|------------1-----1-----|

[Outro] (4:13)
G|------------------------|------------------------|------------------------|------------------------|
D|------14----12-14-------|------------10----------|------10----9--10-------|---10-9--10-12-10-9-----|
A|12-12----12-------14-12-|---12-10-12----12-10----|8--8-----8--------8--10-|---------------------10-|
E|------------------------|---------------------12-|------------------------|------------------------|

G|------------------------|------------------------|------------------------|-----------10-----------|
D|------14----12-14-------|------------10----------|------------12----------|------10------10--------|
A|12-12----12-------14-12-|---12-10-12----12-10----|------12-------12----8--|---8-----8-------8\-----|
E|------------------------|---------------------12-|10-10----10-------10----|------------------------|

(Let ring.)
G|------------------------|
D|------------------------|
A|0-----------------------|
E|------------------------|


************************************

| x   Dead note
| h   Hammer-on
| p   Pull-off
| /   Slide up
| \   Slide down
| ~   Vibrato

************************************
Suggest correction
Creating personal tab
Creating personal tab
You can edit any tab online and save it as your Personal.

You can edit, replace or remove any tab part or add personal notes – all changes will be seen only by you.

Personal tabs can be accessed anytime from any device, even offline.
Learn more »
Give kudos to tab author, rate the tab!
1 2 3 4 5
comments
print report bad tab
guest
You may want to rate the tab now too:
select rating
Wanna post a correction for this tab? Suggest correction