Oops, an error
Loading. Please wait.

Who Am I tab

version 4
version 4

Whole song

Interactive

Video

382 views 6 this week
8 commentsread comments
1 2 3 4 5
x 3
add to favorites
×
Save as Personal and add changes to this tab that will be seen only by you. Learn more ›
×
You can save this tab as Personal to edit and correct it or add notes. All changes will be seen only by you. Learn more »
launch autoscroll
font size
0
reset
how to read this tab
guitar tuner
backing track
0:00
0:00
edit
Autoscroll
slow
fast
+/-
esc
set tempo
stop
-------------------------------------------------------------------------------
                            Who Am I - Casting Crowns
-------------------------------------------------------------------------------
Tabbed by: Jasmin Mendoza
E-mail:mendozajasmin03@gmail.com
Twitter & Instagram : jasminxmendoza

Tuning: Standard 

Verse: x2
e|---------------------------------------------------------------------------------------|
B|-1p0--1----1--3--1-0-----1----3-1-0-1--1----0-0-0-1------------------------------------|
G|------0--0----0-------0--2--0-------------0----------2---------------------------------|
D|---------------------------------------------------------------------------------------|
A|------3------------------0-------------------------------------------------------------|
E|--------------3------------------------1-------------1---------------------------------|

Refrain: x1
e|---------------------------------------------------------------------------------------|
B|---0--1----1-1-1-1--1-----0--1---1-1-1-3--0------0--1-----1-1-1-1--1---0---1--1-1-1-5-3|
G|-2----2-----------------0----2-----------------0----2-----------------0----------------|
D|---------------------------------------------------------------------------------------|
A|------0----------------------0----------------------0----------------------------------|
E|--------------------1---------------------1------------------------1-------3-----------|

Chorus: x2 
e|---0----------------0-------------0-1-0------------------------------------------------|
B|-----3-1--3-3-3-3-1---1--1-1---3---------3-1----1---3-3--1-1-1-------------------------|
G|----------------------2-------------------------------------------2--------------------|
D|---------------------------------------------------------------------------------------|
A|-3--------------------0----------------------------------------------------------------|
E|----------3-------3------------3-----------1--------3------3-3----1--------------------|

e|------------0-0------------------------------------------------------------------------|
B|---1-1-1-1-----------------------------------------------------------------------------|
G|-0-------------------------------------------------------------------------------------|
D|---------------------------------------------------------------------------------------|
A|---3-----------------------------------------------------------------------------------|
E|---------------------------------------------------------------------------------------|

And You've told me who i am, I am Yours. 
e|---------------0-----------------------------------------------------------------------|
B|-1-1--3--1--3----1----1-0--1-----------------------------------------------------------|
G|---------------------------------------------------------------------------------------|
D|---------------------------------------------------------------------------------------|
A|---------------------------3-----------------------------------------------------------|
E|------3-----3----1---------------------------------------------------------------------|

Repeat Verse and Chorusx2. :)


Psalm 126:3 & Psalm 150:4




ps: This is my first tab, so enjoy. :)))
************************************
Suggest correction
Creating personal tab
Creating personal tab
You can edit any tab online and save it as your Personal.

You can edit, replace or remove any tab part or add personal notes – all changes will be seen only by you.

Personal tabs can be accessed anytime from any device, even offline.
Learn more »
Give kudos to tab author, rate the tab!
1 2 3 4 5
comments
print report bad tab
8 comments total. Showing first comments.
0 reply
jasminxmendoza 63 Sep 25, 2015 08:41 AM

Please rate guyss thnksss

0 reply
christiantabber 345 Oct 29, 2016 02:38 AM

rated. goodwork.

+1 reply
buzzyboyo 46 Nov 24, 2016 02:08 PM

didn't like this contribution

guest
You may want to rate the tab now too:
select rating
Wanna post a correction for this tab? Suggest correction