Oops, an error
Loading. Please wait.

Revolution intro tab

version 1
version 1

Intro

127 views 1 this week
3 commentsread comments
1 2 3 4 5
2 more votes to show rating
add to favorites
×
Save as Personal and add changes to this tab that will be seen only by you. Learn more ›
×
You can save this tab as Personal to edit and correct it or add notes. All changes will be seen only by you. Learn more »
launch autoscroll
font size
0
reset
how to read this tab
guitar tuner
edit
Autoscroll
slow
fast
+/-
esc
set tempo
stop
Author
Difficulty
----------------------------------------------------------------------------
-------------------------REVOLOUTION - CASTING PEARLS
----------------------------------------------------------------------------
Tabbed by: dantheman8392
Email: dolphindan8392@yahoo.com

Tuning: Standard

e|-------------------------------------------------------------------------|
B|-------------------------------------------------------------------------|
G|-------------------------------------------------------------------------|
D|-------------------------------------------------------------------------|
A|----------9-10----------9-10---------------------------------------------|
E|-----0-0-----------0-0--------0------------------------------------------|

This is just the very beginning of the song i dont know the chords to the rest
and I just thought this band needed some tabs.

POST TABS FOR THIS BAND! THIS BAND ROCKS!

http://www.castingpearls.com/

Suggest correction
Creating personal tab
Creating personal tab
You can edit any tab online and save it as your Personal.

You can edit, replace or remove any tab part or add personal notes – all changes will be seen only by you.

Personal tabs can be accessed anytime from any device, even offline.
Learn more »
Give kudos to tab author, rate the tab!
1 2 3 4 5
comments
print report bad tab
3 comments total.
0 reply
samchurney 104 Mar 24, 2006 11:57 AM

Ummm, sorry to break it to you, but this tab is wrong xD It's actually

e|-----------------------------------------------------------------|
B|-----------------------------------------------------------------|
G|-----------------------------------------------------------------|
D|-----------------------------------------------------------------|
A|----------6-7----------6-7--6-8---------------------------------|
E|-----0-0-----------0-0-------------------------------------------|

After this is goes into the song, but I'm not going to bother figuring it out yet.

-Sam C

0 reply
samchurney 104 Apr 01, 2006 05:50 AM

Lol, I'm correcting myself, that 8 is supposed to be a 9

0 reply
nfgrox312 155 Aug 10, 2006 09:12 AM

yeah that sounds a lot better.

guest
You may want to rate the tab now too:
select rating
Wanna post a correction for this tab? Suggest correction