Oops, an error
Loading. Please wait.

Fate Of The Human Carbine tab

1,067 views 9 this week
no commentswrite comment
1 2 3 4 5
1 last vote to show rating
add to favorites
×
Save as Personal and add changes to this tab that will be seen only by you. Learn more ›
×
You can save this tab as Personal to edit and correct it or add notes. All changes will be seen only by you. Learn more »
launch autoscroll
font size
0
reset
how to read this tab
guitar tuner
edit
Autoscroll
slow
fast
+/-
esc
set tempo
stop
-------------------------------------------------------------------------------
                             Fate of The Human Carbine by Cat Power
-------------------------------------------------------------------------------

Peter Jeffries cover, from 'What Would the Community Think?' (1996). I may be 
slightly off with the way the first chord (Riff 1) is played, but otherwise this seems accurate.

Tabbed by: Scott H.

Tuning: Standard


Intro/Verse (Riff 1):

e|------------------------------------------|
B|------------------------------------------|
G|--9-9-9-9-9-9-9-9--9-9-9-9-9-9-9-9--------|
D|--9-9-9-9-9-9-9-9--9-9-9-9-9-9-9-9--------|
A|--7-7-7-7-7-7-7-7--7-7-7-7-7-7-7-7--------|
E|------------------------------------------|

    Thinks of money all the time
    Doing it to annoy her
    She's on his conscience day and night
    So he acts...


Riff 2

e|----------------------------------------------------------|
B|----------------------------------------------------------|
G|--10-10-10-10-10--9-9-9-9-9-9--7-7-7-7-7-7-7-7-7----------|
D|--10-10-10-10-10--9-9-9-9-9-9--7-7-7-7-7-7-7-7-7----------|
A|---8--8--8--8--8--7-7-7-7-7-7--5-5-5-5-5-5-5-5-5----------|
E|----------------------------------------------------------|

    ...like her employer


Riff 3

e|--------------------------------------------------------------|
B|--------------------------------------------------------------|
G|--9-9-9-9-9-9-9-9--7-7-7-7---7-7-7-7-7--9-9-9-9-9-9-9-9-------|
D|--9-9-9-9-9-9-9-9--7-7-7-7---7-7-7-7-7--9-9-9-9-9-9-9-9-------|
A|--7-7-7-7-7-7-7-7--5-5-5-5---5-5-5-5-5--7-7-7-7-7-7-7-7-------|
E|--------------------------------------------------------------|

    They all come and peep through a hole in the wall
    Keep the bastards guessing


Riff 1, 2
    He likes to take the long way home
    It's another fine decision
    From six to seven he'll be all alone
    So he turns on televison
    Doesn't even notices as is the hours roll by

Riff 3
    It's lost inside the screen
    Watches the film about the evening sky
    It was someone else's dream

Riff 1, 2
    All come peep through the wall
    Keep the bastards guessing
    All come and peep through a hole in the wall
    Just to watch his heart undressing

Riff 3
    They all come and peep through a hole in the wall
    'Cause you look so impressive

            
            
Suggest correction
Creating personal tab
Creating personal tab
You can edit any tab online and save it as your Personal.

You can edit, replace or remove any tab part or add personal notes – all changes will be seen only by you.

Personal tabs can be accessed anytime from any device, even offline.
Learn more »
Give kudos to tab author, rate the tab!
1 2 3 4 5
comments
print report bad tab
guest
You may want to rate the tab now too:
select rating
Wanna post a correction for this tab? Suggest correction