Oops, an error
Loading. Please wait.

If You Want To Sing Out Sing Out Chords

version 2
version 2

Whole song

Video

23,533 views 156 this week
no commentswrite comment
1 2 3 4 5
x 9
add to favorites
launch autoscroll
font size
0
reset
transpose
0
reset
simplify chords
display chords
guitar tuner
Autoscroll
slow
fast
+/-
esc
set tempo
stop
Help us to improve Ultimate-Guitar.com Take our survey!
×
Author
"If You Want to Sing Out, Sing Out"
 - written by Cat Stevens
 
  [Intro]
                                                             If you...
e| |--0---0--0-0-0---0--0---0-0-0--|--0---0--0-0-0---0--0----0--0--|
B| |--8---8--3-3-3---1--1---1-3-3--|--8---8--3-3-3---1--1----1--3--|
G| |--9---9----4-4---2--2---2-4-4--|--9---9----4-4---2--2----2--4--|
D| |--10--10---5-5---3--3---3-5-5--|--10--10---5-5---3--3----3--5--|
A| |--10--10---5-5---3--3---3-5-5--|--10--10---5-5---3--3----3--5--|
E| |-------------------------------|-------------------------------|
 
[Verse]
Cadd6         G        Fadd9    
want to sing out, sing out
           Cadd6      G        Am
And if you want to be free, be free
                  Dm     Am       G   
Cause there's a million things to be
  Cadd6              G
You know that there are

e| |----------------------------------|
B| |--0-0h1p0-----0----0h1p0----0--1--|
G| |--0-0------0--0----0--------0--0--|
D| |--0-0h2p0--0--0----0h2p0----0--2--|
A| |--------------------------2-------|
E| |--------------------------3-------|

[Verse]
          Cadd6         G         Fadd9    
And if you want to live high, live high 
          Cadd6         G        Am
And if you want to live low, live low
                 Dm     Am      G 
Cause there's a million ways to go
 Cadd6           G
You know that there

                       .
e| |-----------------3-3--|
B| |--0-0h1p0-----0--0-0--| 
G| |--0-0---0--0--0--0-0--| 
D| |--0-0h2p0--0--0--0-0--| 
A| |-----------------2-2--|
E| |-----------------3-3--|

[Chorus]
e|---------------------|
B|---------------------|
G|---------------------| 
D|---------------------|
A|------------0--3--3--|
E|--3---3--3-----------|

Cadd6              Fadd9    
You can do what you want

e|---------------------|
B|---------------------|
G|---------------------|
D|------------------0--|
A|------------0--3-----|
E|--3---3--3-----------|
             
G/D              Cadd6   
The opportunity’s on

e|---------------------|
B|---------------------|
G|---------------------|
D|---------------------|
A|------------0--3--3--|  
E|--3---3--3-----------|

Cadd6                Fadd9 
and if you find a new way

e|---------------------|
B|---------------------|
G|---------------------|
D|------------------0--|
A|------------0--3-----|  
E|--3---3--3-----------|
            
 G/D              Cadd6
you can do it to-day

e|---------------------|
B|---------------------|
G|---------------------|
D|---------------------|
A|------------0--3--3--|  
E|--3---3--3-----------|

Cadd6              Fadd9
You can make it all true

e|---------------------|
B|---------------------|
G|---------------------|
D|------------------0--|
A|------------0--3-----| 
E|--3---3--3-----------|
             
G/D                   C   Am  Em
And you can make it undo, you see
Em     Am         Em    
Ah ah ah it's easy      
Em     Am       Em        G
Ah ah ah you only need to know

e| |----------------------------------|
B| |--0-0h1p0-----0----0h1p0----------|
G| |--0-0------0--0-------------0--0--|  
D| |--0-0h2p0--0--0----0h2p0----0--2--|
A| |--------------------------2-------|
E| |----------------------------------|
 
[Verse]
            Cadd6         G       Fadd9
Well, if you want to say yes, say yes
           Cadd6       G       Am
And if you want to say no, say no
                   Dm    Am      G   
Cause there’s a million ways to go
   Cadd6             G
You know that there are

e| |----------------------------------|
B| |--0-0h1p0-----0----0h1p0----0--1--|
G| |--0-0------0--0----0--------0--0--|  
D| |--0-0h2p0--0--0----0h2p0----0--2--|
A| |--------------------------2-------|
E| |--------------------------3-------|

[Verse]
           Cadd6       G     Fadd9
And if you want to be me, be me
          Cadd6        G      Am 
And if you want to be you, be you
                   Dm      Am      G
Cause there’s a million things to do
    [ch]Cadd6[/ch]            G
You know that there are

e| |-----------------3-3--|
B| |--0-0h1p0-----0--0-0--| 
G| |--0-0---0--0--0--0-0--| 
D| |--0-0h2p0--0--0--0-0--| 
A| |-----------------2-2--|
E| |-----------------3-3--|

[Repeat Chorus]

[Verse]
             Cadd6         G        Fadd9      
Well, if you want to sing out, sing out
           Cadd6        G        Am
And if you want to be free, be free
                   Dm      Am     G  
Cause there's a million things to be, 
   Cadd6            G 
You know that there are
C/G G               G 
You know that there are 
C/G G               G 
You know that there are,
C/G   G            Cadd6  G   Fadd9       
You know that there ar - ar - are 
      G            Cadd6  G   Fadd9   G
You know that there ar - ar - are 

[Outro]
e| |--0--0-0-0---0-0---0--0-0-0--0-0--|--0---|
B| |--8--8-8-8---3-3---1--1-1-1--1-3--|--8---|
G| |--9--9-9-9---4-4---2--2-2-2--2-4--|--9---|
D| |--10---------5-5---3--3-3-3--3-5--|--10--|
A| |----------------------------------|------|
E| |----------------------------------|------|

-----| Chords |------------------------
                                       
   C    Cadd6   Fmaj7   Fadd9          
EADGBE  EADGBE  EADGBE  EADGBE         
032010  x32013  x03210  x03213         
                                       
  Am      Dm      G      C/G     G/D   
EADGBE  EADGBE  EADGBE  EADGBE  EADGBE 
x02210  x00231  320003  302013  xx0033
Suggest correction
comments
print report bad tab
guest
You may want to rate the tab now too:
select rating
Wanna post a correction for this tab? Suggest correction