Oops, an error
Loading. Please wait.

Moonshadow Tab

version 1
version 1

Whole song

Interactive

808 views 69 this week
no commentswrite comment
1 2 3 4 5
3 more votes to show rating
add to favorites
launch autoscroll
font size
0
reset
how to read this tab
guitar tuner
Autoscroll
slow
fast
+/-
esc
set tempo
stop
Help us to improve Ultimate-Guitar.com Take our survey!
×
Author
Difficulty
intermediate
[Intro]

e|5-------5---5---5-------3---2---|3---------------2---------------|
B|----3---------------3-----------|----3-------3-------3-----------|
G|--------------------------------|--------2-------------------2---|
D|0-------0-------0-------0-------|0---------------0---------------|
A|--------------------------------|--------------------------------|
E|--------------------------------|------------------------2-------|

e|--------------------------------|--------0-h-2-------------------|
B|--------3-------------------2/3-|----3-----------3-----------3---|
G|--------0-----------0-----------|----2-----------2---------------|
D|----0-------0-------------------|0-------------------------------|
A|----------------2-------0-------|--------------------------------|
E|3-------------------------------|--------------------------------|


[Chorus]

e|5-------5-------5---5---3---2---|3---------------2---------------|
B|----3-------3-------------------|----3-------3-------3-----------|
G|--------------------------------|--------2-------------------2---|
D|0-------0-------0-------0-------|0---------------0---------------|
A|--------------------------------|--------------------------------|
E|--------------------------------|------------------------2-------|

e|--------------------------------|--------0-h-2-----------5-------|
B|--------3-----------------------|----3-----------3-------3-------|
G|--------0-----------0-------0---|----2-----------2------(2)------|
D|----0-------0-------------------|0-------------------------------|
A|----------------2-------0-------|--------------------------------|
E|3-------------------------------|--------------------------------|

e|5-------5-------5---5---3---2---|3---------------2---------------|
B|----3-------3-------------------|----3-------3-------3-----------|
G|--------------------------------|--------2-------------------2---|
D|0-------0-------0-------0-------|0---------------0---------------|
A|--------------------------------|--------------------------------|
E|--------------------------------|------------------------2-------|

e|--------------------------------|--------0-h-2-------------------|
B|--------3-----------------------|----3-----------3---------------|
G|--------0-----------0-------0---|----2-----------2---------------|
D|----0-------0-------------------|0-------------------------------|
A|----------------2-------0-------|--------------------------------|
E|3-------------------------------|--------------------------------|


[Verse]

Strum chords:
    G    D    G       D      G       D       Em      A7
And if I ever lose my hands, lose my plough, lose my land,
   G    D    G       D         Em A7 D D/C# Bm    Em            A7      D
Oh if I ever lose my hands, Oh iiiiiiiiiiiiiiif I won't have to work no more.

End with:
e|2-p-0---------------------------|
B|--------3---3---3---------------|
G|--------2-----------------------|
D|0---------------0---------------|
A|--------------------------------|
E|--------------------------------|

    G    D    G       D     G     D       Em      A7
And if I ever lose my eyes, if my colours all run dry,
    G    D    G       D        Em A7 D D/C# Bm    Em            A7     D
Yes if I ever lose my eyes, Oh iiiiiiiiiiiiiiif I won't have to cry no more.

End with:
e|2-p-0---------------------------|
B|--------3---3---3---------------|
G|--------2-----------------------|
D|0---------------0---------------|
A|--------------------------------|
E|--------------------------------|


[Chorus]

e|5-------5-------5---5---3---2---|3---------------2---------------|
B|----3-------3-------------------|----3-------3-------3-----------|
G|--------------------------------|--------2-------------------2---|
D|0-------0-------0-------0-------|0---------------0---------------|
A|--------------------------------|--------------------------------|
E|--------------------------------|------------------------2-------|

e|--------------------------------|--------0-h-2-----------5-------|
B|--------3-----------------------|----3-----------3-------3-------|
G|--------0-----------0-------0---|----2-----------2------(2)------|
D|----0-------0-------------------|0-------------------------------|
A|----------------2-------0-------|--------------------------------|
E|3-------------------------------|--------------------------------|

e|5-------5-------5---5---3---2---|3---------------2---------------|
B|----3-------3-------------------|----3-------3-------3-----------|
G|--------------------------------|--------2-------------------2---|
D|0-------0-------0-------0-------|0---------------0---------------|
A|--------------------------------|--------------------------------|
E|--------------------------------|------------------------2-------|

e|--------------------------------|--------0-h-2-------------------|
B|--------3-----------------------|----3-----------3---------------|
G|--------0-----------0-------0---|----2-----------2---------------|
D|----0-------0-------------------|0-------------------------------|
A|----------------2-------0-------|--------------------------------|
E|3-------------------------------|--------------------------------|


[Verse]

    G    D    G       D     G       D         Em      A7
And if I ever lose my legs, I won't moan, and I won't beg,
    G    D    G       D        Em A7 D D/C# Bm       Em            A7      D
Yes if I ever lose my legs, Oh iiiiiiiiiiiiiiif... I won't have to walk no more.

End with:
e|2-p-0---------------------------|
B|--------3---3---3---------------|
G|--------2-----------------------|
D|0---------------0---------------|
A|--------------------------------|
E|--------------------------------|

    G    D    G       D      G      D      Em        A7
And if I ever lose my mouth, all my teeth, north and south,
    G    D    G       D         Em A7 D D/C# Bm       Em            A7
Yes if I ever lose my mouth, Oh iiiiiiiiiiiiiiif... I won't have to talk...

End with:
e|0h2p0-----------5---------------|
B|--------3---3---3---------------|
G|--------2-------2---------------|
D|0---------------0---------------|
A|--------------------------------|
E|--------------------------------|


[Chorus]

e|5-------5-------5---5---3---2---|3---------------2---------------|
B|----3-------3-------------------|----3-------3-------3-----------|
G|--------------------------------|--------2-------------------2---|
D|0-------0-------0-------0-------|0---------------0---------------|
A|--------------------------------|--------------------------------|
E|--------------------------------|------------------------2-------|

e|--------------------------------|--------0-h-2-----------5-------|
B|--------3-----------------------|----3-----------3-------3-------|
G|--------0-----------0-------0---|----2-----------2------(2)------|
D|----0-------0-------------------|0-------------------------------|
A|----------------2-------0-------|--------------------------------|
E|3-------------------------------|--------------------------------|

e|5-------5-------5---5---3---2---|3---------------2---------------|
B|----3-------3-------------------|----3-------3-------3-----------|
G|--------------------------------|--------2-------------------2---|
D|0-------0-------0-------0-------|0---------------0---------------|
A|--------------------------------|--------------------------------|
E|--------------------------------|------------------------2-------|

e|--------------------------------|--------0-h-2-------------------|
B|--------3-----------------------|----3-----------3---------------|
G|--------0-----------0-------0---|----2-----------2---------------|
D|----0-------0-------------------|0-------------------------------|
A|----------------2-------0-------|--------------------------------|
E|3-------------------------------|--------------------------------|


[Bridge]

E7                  A         E                    A
Did it take long to find me?  I asked the faithful light.
E                   A             E7                     A  G
Did it take long to find me?  And are you gonna stay the ni~ight?


[Outro]

e|--------------------------------|--------2-h-3---5-5-5-5---------|
B|--------3-------------------2/3-|----3-----------3-3-3-3---------|
G|--------0-----------0-----------|----2-----------2-2-2-2---------|
D|----0-------0-------------------|0---------------2---2-----------|
A|----------------2-------0-------|--------------------------------|
E|3-------------------------------|--------------------------------|

Than strum:

G               D
Moonshadow, moonshadow


************************************

| h   Hammer-on
| p   Pull-off
| /   Slide up

************************************
Suggest correction
Give kudos to tab author, rate the tab!
1 2 3 4 5
comments
print report bad tab
guest
You may want to rate the tab now too:
select rating
Wanna post a correction for this tab? Suggest correction