Oops, an error
Loading. Please wait.

Two Fine People Chords

97 views 97 this week
no commentswrite comment
1 2 3 4 5
2 more votes to show rating
add to favorites
launch autoscroll
font size
0
reset
transpose
0
reset
simplify chords
display chords
guitar tuner
×
Best way to learn
"Two Fine People"
Autoscroll
slow
fast
+/-
esc
set tempo
stop
Author
About this tab version
Good song by Cat Stevens. Was this info helpful? Yes No
[Intro]
  Cadd9 Cmaj7 D        Cadd9 Cmaj7 D          Bb    C   
E|--------------------|-------------------|----1-----3----|
B|--3----0------------|--3-----0-------0--|----3-----5----|
G|------------2--p0---|-------------2-----|----3-----5----|
D|------------0-------|--2----------0-----|----3-----5----|
A|--3-----------------|-------------------|----1-----3----|
E|--------------------|-------------------|----1-----3----|

    Am
E|---0----0-0-----|---0-0---0-0---0---|
B|---1----1-1-----|---1-1---1-1---1---|
G|---2------------|---2---------------|
D|---2------------|---2---------------|
A|---0--0-----0---|---0----0----0-----|
E|----------------|-------------------|

     
[Verse 1]
Am                 Dm7            G
   Now that I’ve passed your test, 
            E                  F          G       C
How can I prove to you, baby, I’ll never let you down?
     G/B         E                       Am             E        Am  
If I led you a-round, I’m sorry, but I never meant to worry you, no !
E  Am                Dm7               G
      Now that I’ve kissed your breast, 
            E                  F          G        C
How can I prove to you, baby, I’ll never make you sad?
     G/B   E                   Am               E      Am
If I ever had to believe your tears won’t come back a-gain
               D              Bm
I love you-oo-oo, though the stars may fade, 
           E                  A
And the mountains turn into sand,
               D          Bm            E
I love you-oo-oo, till my body changes into an old man,
A                D           B            E
  I love you-oo-oo, and the song that I sing
         F   G       E  A   C   D
is the only way that I can ex-plain


E |-----------0--------|
B |--------3-----------|
G |------4-------4--2--|
D |--------------------|
A |--------------------|
E |--0-----------------|


[Verse 2] 
Am              Dm7      G
    La, la, la, la, la, la, 
             E                    F           G           C
You know, I wish for you, baby, nothing but good times a-head, 
  G/B           E                  Am          E          
Anything that heaven can give you, I can give you instead
Am             Dm7      G
   La, la, la, la, la, la, 
             E                 F           G          C
How could I lie to you, baby, I’ll never lead you a-round,
 G/B                 E
I’ll take care of everything you need, darling,
  Am            E         A
Every little need’ll be found
               D              Bm  
I love you-oo-oo, though the time may change, 
    E                       A
And   snowmen sleep in the sea,
D          Bm          E
   And I really only want you to want me
A               D             B          E
  I love you-oo-oo, and the song that I sing
        F    G       E  A   C   D
is the only way that I can ex-plain


E |-------0-------|------0-------|--0------0---|-------0-------|
B |----3-------3--|----3------3--|------1------|-----3------3--|
G |--4------4-----|--4-----4-----|----2------2-|--4------4-----|
D |---------------|--------------|-------------|---------------|
A |---------------|--------------|-------------|---------------|
E |--0------------|--------------|-------------|--0------------|


[Verse 3]
Em                  Am7         D
   Now that you’ve shown your heart,
         B                     C           D          G
I’ll be right with you, baby, I’ll never leave you a-lone,
     D/F#      B
Any-where you want me to be, honey,
 Em                 B           Am
I’ll be there , to have and to hold
                     Dm7               G
And , now that the clouds have rolled back,
     E                 F           G       C
Hold on to me ,baby, we’re going never to land,
  G/B           E              Am            E       A
Flying on the power of love, flying on the power of love
              D           Bm
I love you-oo-oo, though time may fade,
       E                 A
And mountains turn into sand,
              D             Bm         E
I love you-oo-oo, till the very same come back to land,
A                D           B           E
   I love you-oo-oo, & the song that I sing 
        F    G       E  A  C    D
is the only way that I can ex-plain!


E |------0-------|--0------0---|-------0-------|
B |----3------3--|------1------|-----3------3--|
G |--4-----4-----|----2------2-|--4------4-----|
D |--------------|-------------|---------------|
A |--------------|-------------|---------------|
E |--0-----------|-------------|--0------------|
                                   
   Cadd9 Cmaj7 D        Cadd9 Cmaj7 D           
E |--------------------|-------------------|
B |--3----0------------|--3-----0-------0--|
G |------------2--p0---|-------------2-----|
D |------------0-------|--2----------0-----|
A |--3-----------------|-------------------|
E |--------------------|-------------------|


  D  D4 D  D4 D      D  D4 D D4 D  D7
| /   /     /   / |  /    /    /   / | 


[Coda]

Cadd9 Cmaj7  D            Cadd9 Cmaj7  D
 Two  fine  people should love  each other

  Cadd9 Cmaj7 D     Cadd9 Cmaj7 D
|  /      /   / / |   /     /   / / |

Cadd9 Cmaj7  D            Cadd9 Cmaj7  D
 Two  fine  people could  help  each other


  Bbmaj7    C       Fmaj9
|   /   /   /   / |   /   /   /   /  | 

  D  D4 D  D4 D       D   D4 D  D4 D   D7
| /    /     /   / |  /     /      /    / | 


 
 (Repeat Coda) 
Suggest correction
Give kudos to tab author, rate the tab!
1 2 3 4 5
comments
print report bad tab
guest
You may want to rate the tab now too:
select rating
Wanna post a correction for this tab? Suggest correction