Oops, an error
Loading. Please wait.

Me So Cag Dosso tab

402 views 1 this week
2 commentsread comments
1 2 3 4 5
2 more votes to show rating
add to favorites
×
Save as Personal and add changes to this tab that will be seen only by you. Learn more ›
×
You can save this tab as Personal to edit and correct it or add notes. All changes will be seen only by you. Learn more »
launch autoscroll
font size
0
reset
how to read this tab
guitar tuner
edit
Autoscroll
slow
fast
+/-
esc
set tempo
stop
Titolo: Me So’ Cagà Dosso
Artista: Catarrhal Noise
Album: Turbo America

Intro e Riff
e|---------------------------------------|-----------------------------|
B|---------------------------------------|-----------------------------|
G|---------------------------------------|-----------------------------|
D|-----------------5h6h7-----------------|-------5h6h7-----------------|
A|-----------------------0-0--0----------|-------------0-0--5b6-3-5-3--|
E|-0-0-14\---3h4h5--------------0-0-3-0--|-3h4h5-----------------------|
   P.M.                  P.M.---------|                P.M.
                                          (la battuta sottostante va suonata
                                          soltanto nell'intro. Dopo l'intro
                                          suonare quella sovrastante al posto di questa)
e|---------------------------------------|-----------------------------|
B|---------------------------------------|-----------------------------|
G|---------------------------------------|-----------------------------|
D|-----------------5h6h7-----------------|-------5h6h7-----------------|
A|-----------------------0-0--0----------|-------------0-0--\----------|
E|-----------3h4h5--------------0-0-3-0--|-3h4h5-----------------------|
                         P.M.---------|                P.M.

Chorus

E|-3h4h5-3h4h5-xx-x-<5>-|


Bridge

La ritmica non saprei scrivervela quindi vi metto i nomi degli accordi con i diagrammi

A D A D A D A D (e continua così...)

A:       D:

e|-5-|---|(5)|
B|-5-|---|-7-|
G|-6-|---|-7-|
D|-7-|---|-7-|
A|-7-|---|-5-|
E|-5-|---|---|

La canzone chiude con:

e|----------||
B|----------||
G|----------||
D|-7--------||
A|-7--------||
E|-5--------||

Legenda:
P.M. = palm muting
<5> = armonico
(5) = nota opzionale
h = hammer on
p = pull off
b = bending fino alla nota indicata subito dopo la "b"
x = rake
\ o / = slide

è la mia prima tab seria quindi non siate cattivi

            
            
Suggest correction
Creating personal tab
Creating personal tab
You can edit any tab online and save it as your Personal.

You can edit, replace or remove any tab part or add personal notes – all changes will be seen only by you.

Personal tabs can be accessed anytime from any device, even offline.
Learn more »
Give kudos to tab author, rate the tab!
1 2 3 4 5
comments
print report bad tab
2 comments total.
0 reply
Marco Metallaro 35 Nov 12, 2012 04:35 AM, edited on March 20 2014, 11:14 am

Adesso è perfetta

0 reply
Nonno d'acciaio 47 Apr 09, 2016 11:33 AM

fatta bene

guest
You may want to rate the tab now too:
select rating
Wanna post a correction for this tab? Suggest correction