Oops, an error
Loading. Please wait.

9Mm And A Three Piece Suit Bass Tab

2,803 views 3 this week
no commentswrite comment
1 2 3 4 5
1 last vote to show rating
add to favorites
launch autoscroll
font size
0
reset
guitar tuner
Autoscroll
slow
fast
+/-
esc
set tempo
stop
Help us to improve Ultimate-Guitar.com Take our survey!
×
Author
Difficulty
intermediate
Intro:
g|---------------|
d|---------------|
a|---------------|
e|-5555555555-55-|

Pre-Verse/Post Verse(played very fast):
g|----------------------|
d|-5h777775-------------|
a|---------7-55-5555777-|
e|----------------------|

Verse(steve took 3 or 4):
g|--------------------------------|
d|--------------------------------|
a|---------------5~---------7~----|
e|-5\-------5~---------7~---------|

Verse the third time, rest a lot longer:
g|-------------------------------------------|
d|-----------------4---4-7-4-------6-99-7-6--|
a|-------------4-7---5---------6-9----------9|
e|-5~--------5---------------7---------------|

Chorus:
g|--------7---7-|
d|--------------|
a|-------5--5---|
e|-55-33--------|
Suggest correction
Give kudos to tab author, rate the tab!
1 2 3 4 5
comments
print report bad tab
guest
You may want to rate the tab now too:
select rating
Wanna post a correction for this tab? Suggest correction