Oops, an error
Loading. Please wait.

9Mm And A Three Piece Suit Chords

6,266 views 3 this week
no commentswrite comment
1 2 3 4 5
please rate
add to favorites
launch autoscroll
font size
0
reset
transpose
0
reset
display chords
guitar tuner
Autoscroll
slow
fast
+/-
esc
set tempo
stop
Help us to improve Ultimate-Guitar.com Take our survey!
×
Author
Difficulty
novice
9mm and a Three Piece Suit
By: Catch 22
Tabbed by Sam-a-lama Kujo

Intro
------
Distortion
e|-5-------------------|
B|-5-------------------|
G|-6-(many many times)-|
D|-7-------------------|
A|-7-------------------|
E|-5-------------------|
   A

Verse
------
Ska Strumming
e|-5--3--5--5-|
B|-5--3--7--7-|
G|-6--4--7--7-| x8
D|-7--5--7--7-|
A|-7--5--5--5-|
E|-5--3--5--5-|
   A  G  D  D

Chorus
-------
Distortion
e|-5-3-5-|
B|-5-3-7-|
G|-6-4-7-| x4
D|-7-5-7-|
A|-7-5-5-|
E|-5-3-5-|
   A G D
Ska Strumming
e|-5-5-7-7-|
B|-5-7-7-9-|
G|-6-7-8-9-| x2
D|-7-7-9-9-|
A|-7-5-9-7-|
E|-5-5-7-7-|
   A D B E

Bridge
-------
Ska Strumming
e|-5--3--5--5-|
B|-5--3--7--7-|
G|-6--4--7--7-| x4
D|-7--5--7--7-|
A|-7--5--5--5-|
E|-5--3--5--5-|
   A  G  D  D

Bass Interlude



Play:

Intro
Verse
Chorus
Verse
Chorus
Bridge
Chorus (No guitar on ska part of this chorus)
Outro (Verse progression 4x)
Suggest correction
Give kudos to tab author, rate the tab!
1 2 3 4 5
comments
print report bad tab
guest
You may want to rate the tab now too:
select rating
Please do not post tabs as comments. Select "correction" instead!