Oops, an error
Loading. Please wait.

Alma Ata Tab

version 1
version 1

Whole song

Interactive

953 views 6 this week
no commentswrite comment
1 2 3 4 5
excellent!
x 1
add to favorites
launch autoscroll
font size
0
reset
how to read this tab
guitar tuner
Tab Pro tools
  • play this tab
  • loop segment
  • change instrument
  • show fretboard
  • metronome
Autoscroll
slow
fast
+/-
esc
set tempo
stop
Contributor
Difficulty
intermediate
My first tab. Also available in Guitar Pro 5 format.

Any questions, contact taiorama@gmail.com

Alma Ata
          Bm                      E                     
     
E||-------2-----------------|-----0--------------------|
B||-------3-----------------|-----0--------------------|
G||-------4-----------------|-----1--------------------|
D||-------4--------0--------|-----2--------------------|
A||--2----2-----2-----------|-----2-----------------3--|
E||-------------------1--0--|-----0--0--1--2--4--5-----|
 
 
            Am                                                    Bm           

-------------5--------4--|-----3------------------|-------------2-----------|
-------------5--------4--|-----3----------5----5--|-------------3-----------|
-------------5--------4--|-----3----------5----5--|-------------4-----------|
-------------7--------6--|-----5----------5----5--|-------------4--------0--|
--2----------7--------6--|-----5----5--4--3----3--|--0--1--2----2-----2-----|
-----4--5----5-----4--4--|-----3------------------|-------------------------|
 
 
          E                          Am                                      
                                     ^                                       

----------0--------------|-----------5--------5--|--------------------------|
----------0--------------|-----------5--------5--|--------------------------|
----------1--------------|-----------5--------5--|--------------------------|
----------2--------------|-----------7--------7--|--------------------------|
----------2--------------|--5--3--2--7--------L--|-----------------5--7--8--|
--1--0----0--0--4--5--7--|-----------5--------5--|-----3--5--7--8-----------|
 
 
  C                                                                           
    
-------------------------|-------------------------|-------------------------|
--5----5--------5-----5--|--5----5--------5-----5--|--5----5--------5-----5--|
--5----5--------5-----5--|--5----5--------5-----5--|--5----5--------5-----5--|
--5----5--------5-----5--|--5----5--------5-----5--|--5----5--------5-----5--|
--3----3-----3--3-----3--|--3----3-----3--3-----3--|--3----3-----3--3-----3--|
-------------------------|-------------------------|-------------------------|
 
 
                                                    Csus4  
              tr                                           

-----------------------------|----------------------------|
-----------------------------|--5----5--------5-----6-----|
-----------------------------|--5----5--------5-----5-----|
-----------------------------|--5----5--------5-----5-----|
-----------------------------|--3----3-----3--3-----3-----|
--3--5--7--8--7(8)--7--5--7--|----------------------------|
 
 
                            Em/C                      C7                       
  
-------------------------|-------------------------|--------------------------|
--6----6--------6-----6--|--5----5--------5-----5--|--5--5--5--5--5--5--5--5--|
--5----5--------5-----5--|--4----4--------4-----4--|--3--3--3--3--3--3--3--3--|
--5----5--------5-----5--|--5----5--------5-----5--|--5--5--5--5--5--5--5--5--|
--3----3-----3--3-----3--|--3----3-----3--3-----3--|--3--3--3--3--3--3--3--3--|
-------------------------|-------------------------|--------------------------|
 
 
  Dm                  E                              Am                  C7  
--5----5--------5-----0--|--0----0-----0----0-----|--5----5--------5-----3--|
--6----6--------6-----0--|--0----0-----0----0-----|--5----5--------5-----5--|
--7----7--------7-----1--|--1----1-----1----1-----|--5----5--------5-----3--|
--7----7--------7-----2--|--2----2-----2----2-----|--7----7--------7-----5--|
--5----5-----5--5-----2--|--2----2-----2----2-----|--7----7--------7-----3--|
----------------------0--|--0----0-----0----0-----|--5----5-----5--5--------|
 
 
                           Dm                  E                            

--3----3-----3----3-----|--5----5--------5-----0--|--0----0-----0----0-----|
--5----5-----5----5-----|--6----6--------6-----0--|--0----0-----0----0-----|
--3----3-----3----3-----|--7----7--------7-----1--|--1----1-----1----1-----|
--5----5-----5----5-----|--7----7--------7-----2--|--2----2-----2----2-----|
--3----3-----3----3-----|--5----5-----5--5-----2--|--2----2-----2----2-----|
------------------------|----------------------0--|--0----0-----0----0-----|
 
 
  Am                  C7                             Dm                  E   

--5----5--------5-----3--|--3----3-----3----3-----|--5----5--------5-----0--|
--5----5--------5-----5--|--5----5-----5----5-----|--6----6--------6-----0--|
--5----5--------5-----3--|--3----3-----3----3-----|--7----7--------7-----1--|
--7----7--------7-----5--|--5----5-----5----5-----|--7----7--------7-----2--|
--7----7--------7-----3--|--3----3-----3----3-----|--5----5-----5--5-----2--|
--5----5-----5--5--------|------------------------|----------------------0--|
 
 
                           Am                  C7                           

--0----0-----0----0-----|--5----5--------5-----3--|--3----3-----3----3-----|
--0----0-----0----0-----|--5----5--------5-----5--|--5----5-----5----5-----|
--1----1-----1----1-----|--5----5--------5-----3--|--3----3-----3----3-----|
--2----2-----2----2-----|--7----7--------7-----5--|--5----5-----5----5-----|
--2----2-----2----2-----|--7----7--------7-----3--|--3----3-----3----3-----|
--0----0-----0----0-----|--5----5-----5--5--------|------------------------|
 
 
  Dm                  E                          Am                             
                                                 ^                              

--5----5--------5-----0--|-----------------------5--|--------------------------|
--6----6--------6-----0--|-----------------------5--|--------------------------|
--7----7--------7-----1--|-----------------------5--|--------------------------|
--7----7--------7-----2--|-----------------------7--|--------------------------|
--5----5-----5--5-----2--|--------------5--3--2--7--|-----------------5--7--8--|
----------------------0--|--0--4--5--7-----------5--|-----3--5--7--8-----------|
 
 
  C                                                                           

-------------------------|-------------------------|-------------------------|
--5----5--------5-----5--|--5----5--------5-----5--|--5----5--------5-----5--|
--5----5--------5-----5--|--5----5--------5-----5--|--5----5--------5-----5--|
--5----5--------5-----5--|--5----5--------5-----5--|--5----5--------5-----5--|
--3----3-----3--3-----3--|--3----3-----3--3-----3--|--3----3-----3--3-----3--|
-------------------------|-------------------------|-------------------------|
 
 
                                                    Csus4  
              tr                                           
  
-----------------------------|----------------------------|
-----------------------------|--5----5--------5-----6-----|
-----------------------------|--5----5--------5-----5-----|
-----------------------------|--5----5--------5-----5-----|
-----------------------------|--3----3-----3--3-----3-----|
--3--5--7--8--7(8)--7--5--7--|----------------------------|
 
 
                            Em/C                      C7                       

-------------------------|-------------------------|--------------------------|
--6----6--------6-----6--|--5----5--------5-----5--|--5--5--5--5--5--5--5--5--|
--5----5--------5-----5--|--4----4--------4-----4--|--3--3--3--3--3--3--3--3--|
--5----5--------5-----5--|--5----5--------5-----5--|--5--5--5--5--5--5--5--5--|
--3----3-----3--3-----3--|--3----3-----3--3-----3--|--3--3--3--3--3--3--3--3--|
-------------------------|-------------------------|--------------------------|
 
 
  Dm                  E                              Am                  C7  

--5----5--------5-----0--|--0----0-----0----0-----|--5----5--------5-----3--|
--6----6--------6-----0--|--0----0-----0----0-----|--5----5--------5-----5--|
--7----7--------7-----1--|--1----1-----1----1-----|--5----5--------5-----3--|
--7----7--------7-----2--|--2----2-----2----2-----|--7----7--------7-----5--|
--5----5-----5--5-----2--|--2----2-----2----2-----|--7----7--------7-----3--|
----------------------0--|--0----0-----0----0-----|--5----5-----5--5--------|
 
 
                           Dm                  E                            
 
--3----3-----3----3-----|--5----5--------5-----0--|--0----0-----0----0-----|
--5----5-----5----5-----|--6----6--------6-----0--|--0----0-----0----0-----|
--3----3-----3----3-----|--7----7--------7-----1--|--1----1-----1----1-----|
--5----5-----5----5-----|--7----7--------7-----2--|--2----2-----2----2-----|
--3----3-----3----3-----|--5----5-----5--5-----2--|--2----2-----2----2-----|
------------------------|----------------------0--|--0----0-----0----0-----|
 
 
  Am                  C7                             Dm                  E   

--5----5--------5-----3--|--3----3-----3----3-----|--5----5--------5-----0--|
--5----5--------5-----5--|--5----5-----5----5-----|--6----6--------6-----0--|
--5----5--------5-----3--|--3----3-----3----3-----|--7----7--------7-----1--|
--7----7--------7-----5--|--5----5-----5----5-----|--7----7--------7-----2--|
--7----7--------7-----3--|--3----3-----3----3-----|--5----5-----5--5-----2--|
--5----5-----5--5--------|------------------------|----------------------0--|
 
 
                           Am                  C7                           

--0----0-----0----0-----|--5----5--------5-----3--|--3----3-----3----3-----|
--0----0-----0----0-----|--5----5--------5-----5--|--5----5-----5----5-----|
--1----1-----1----1-----|--5----5--------5-----3--|--3----3-----3----3-----|
--2----2-----2----2-----|--7----7--------7-----5--|--5----5-----5----5-----|
--2----2-----2----2-----|--7----7--------7-----3--|--3----3-----3----3-----|
--0----0-----0----0-----|--5----5-----5--5--------|------------------------|
 
 
  Dm                  E                          Am                             
  
--5----5--------5-----0--|-----------------------0--|--------------------------|
--6----6--------6-----0--|-----------------------1--|--------------------------|
--7----7--------7-----1--|-----------------------2--|--------------------------|
--7----7--------7-----2--|-----------------------2--|--------------------------|
--5----5-----5--5-----2--|--------------5--3--2--0--|-----------------5--7--8--|
----------------------0--|--0--4--5--7--------------|-----3--5--7--8-----------|
 
 
  C                                                                           
    
-------------------------|-------------------------|-------------------------|
--5----5--------5-----5--|--5----5--------5-----5--|--5----5--------5-----5--|
--5----5--------5-----5--|--5----5--------5-----5--|--5----5--------5-----5--|
--5----5--------5-----5--|--5----5--------5-----5--|--5----5--------5-----5--|
--3----3-----3--3-----3--|--3----3-----3--3-----3--|--3----3-----3--3-----3--|
-------------------------|-------------------------|-------------------------|
 
 
                                                    Csus4  
              tr                                           
     
-----------------------------|----------------------------|
-----------------------------|--5----5--------5-----6-----|
-----------------------------|--5----5--------5-----5-----|
-----------------------------|--5----5--------5-----5-----|
-----------------------------|--3----3-----3--3-----3-----|
--3--5--7--8--7(8)--7--5--7--|----------------------------|
 
 
                            Em/C                      C7                       
  
-------------------------|-------------------------|--------------------------|
--6----6--------6-----6--|--5----5--------5-----5--|--5--5--5--5--5--5--5--5--|
--5----5--------5-----5--|--4----4--------4-----4--|--3--3--3--3--3--3--3--3--|
--5----5--------5-----5--|--5----5--------5-----5--|--5--5--5--5--5--5--5--5--|
--3----3-----3--3-----3--|--3----3-----3--3-----3--|--3--3--3--3--3--3--3--3--|
-------------------------|-------------------------|--------------------------|
 
 
  Dm                  E                              Am                
                                                     ^                 
                  
--5----5--------5-----0--|--0----0-----0----0-----|--5----------------||
--6----6--------6-----0--|--0----0-----0----0-----|--5----------------||
--7----7--------7-----1--|--1----1-----1----1-----|--5----------------||
--7----7--------7-----2--|--2----2-----2----2-----|--7----------------||
----------------------0--|--0----0-----0----0-----|--5----------------||
 
 
 
 
Duration Legend
---------------
W - whole
H - half
Q - quarter
E - 8th
S - 16th
T - 32nd
X - 64th
. - note dotted
|-n-|  - n-tuplets
 
 
Tablature Legend
----------------
L - tied note
x - dead note
g - grace note
(n) - ghost note
> - accentuded note
NH - natural harmonic
AH - artificial harmonic
TH - tapped harmonic
SH - semi harmonic
PH - pitch harmonic
h - hammer on
p - pull off
b - bend
br - bendRelease
pb - preBend
pbr - preBendRelease
brb - bendReleaseBend
\n/ - tremolo bar dip
\n - tremolo bar dive
-/n - tremolo bar Release up
/n\ - tremolo bar inverted dip
/n - tremolo bar return
-\n - tremolo bar Release down
S - shift slide
s - legato slide
/ -  slide into from below or out of upwards
\ -  slide into from above or out of downwards
~ - vibrato
W - wide vibrato
tr - tril'
TP - tremolo picking
T - tapping
S - slap
P - pop
< - fade in
^ - brush up
v - brush down
comments
We did not receive enough feedback on this tab! Please rate:
print report bad tab
1 2 3 4 5
I want to post or [tab]
guest
You may want to rate the tab now too:
select rating
Please do not post tabs as comments. Select "correction" instead!