Oops, an error
Loading. Please wait.

As The Footsteps Die Out Forever Bass Tab

version 1
version 1

Whole song

Interactive

1,590 views 3 this week
3 commentsread comments
1 2 3 4 5
x 5
add to favorites
launch autoscroll
font size
0
reset
guitar tuner
×
Best way to learn
"As The Footsteps Die Out Forever"
Autoscroll
slow
fast
+/-
esc
set tempo
stop
Artist: Catch 22
Song: As The Footsteps Die Out Forever
Album: Keasbey Nights

Originally tabbed by Alex Blair-Lamb (neahhhhhhh@aol.com)
Corrected by Mike Petriello (kayrock29@hotmail.com

The notes were right on the original but the spacing was wrong which leads 
to the notes
being read wrong.

Catch 22
As the Footsteps Die Out Forever...

G|-------------------------------------------------------
D|-------------------------------------------------------
A|------------------6-7-9------7----------------------
E|-0--0-5-4-7-7------------5-5----5----2-2-2-4-5-4-2
Suggest correction
comments
print report bad tab
3 comments total.
0 reply
penesucio 10 Aug 11, 2003 08:00 PM

G----------------------------------
D-----------------------------------
A----------------6-7-9------------------
E-0--5-4-7-7------------5----2-2-2-4-55-4-2-0

0 reply
penesucio 10 Aug 11, 2003 08:00 PM

G|--------------------------------------
D|--------------------------------------
A|------------------6-7-9------7--------
E|-0--0-5-4-7-7------------5-5----5----2-2-2-4-55-4-2-0

0 reply
heeeyhooo 31 Nov 18, 2005 12:58 PM

It's all of from what he actualy plays, putting far too much work into it then what is needed, and what it actualy is.

guest
You may want to rate the tab now too:
select rating
Wanna post a correction for this tab? Suggest correction