Oops, an error
Loading. Please wait.

Day In Day Out Tab

version 3
version 3

Whole song

1,264 views 1 this week
no commentswrite comment
1 2 3 4 5
excellent!
x 1
add to favorites
launch autoscroll
font size
0
reset
how to read this tab
guitar tuner
Tab Pro tools
  • play this tab
  • loop segment
  • change instrument
  • show fretboard
  • metronome
Autoscroll
slow
fast
+/-
esc
set tempo
stop
Contributor
Difficulty
novice
-------------------------------------------------------------------------------
                             Day in Day out  - catch 22
-------------------------------------------------------------------------------
Tabbed by:Spizzleonyouu
Email:

Tuning:standard

intro(distortion)

all the other tabs are off, this one is 100% correct

intro(distortion and palm muted)
e|--------------------------------------------------------------------------|
B|--------------------------------------------------------------------------|
G|77--------------- 777-----------------------------------------------------|
D|77-444-555-9-7-55-777-77777-----------------------------------------------|
A|55-444-555-9-7-55-555-77777-----------------------------------------------|
E|---222-333-7-5-33-----55555-----------------------------------------------|

verse and breakdown(just play this part slower) (clean with ska upstroke)
e|2x2x22-2x2x22-3x3x33-/77-\-55-3x3x33-2x2x22-5x5x55------------------------|
B|3x3x33-2x2x22-3x3x33-/77-\-55-3x3x33-3x3x33-5x5x55------------------------|
G|2x2x22-3x3x33-4x4x44-/88-\-66-4x4x44-2x2x22-6x6x66------------------------|
D|--------------------------------------------------------------------------|
A|--------------------------------------------------------------------------|
E|--------------------------------------------------------------------------|

chorus(distortion)
e|--------------------------------------------------------------------------|
B|--------------------------------------------------------------------------|
G|-----777777----------------7777-------------------------------------------|
D|5555-777777-9999-7777-5555-7777-7777--------------------------------------|
A|5555-555555-9999-7777-5555-5555-7777--------------------------------------|
E|3333--------7777-5555-3333------5555--------------------------------------|

bridge(clean with ska upstroke)
e|222x222-5555-3333-------222x222--5555-3333-5555-3333-55555555---end on 2--|
B|333x333-5555-3333-------333x333--5555-3333-5555-3333-55555555----------3--|
G|222x222-6666-4444-(x4)--222x222--6666-4444-6666-4444-66666666----------2--|
D|--------------------------------------------------------------------------|
A|--------------------------------------------------------------------------|
E|--------------------------------------------------------------------------|

| /  slide up
| \  slide down
| h  hammer-on
| p  pull-off
| ~  vibrato
| +  harmonic
| x  Mute note
comments
We did not receive enough feedback on this tab! Please rate:
print report bad tab
1 2 3 4 5
I want to post or [tab]
guest
You may want to rate the tab now too:
select rating
Please do not post tabs as comments. Select "correction" instead!