Oops, an error
Loading. Please wait.

Dear Sergio Bass Tab

version 1
version 1

Whole song

Interactive

2,449 views 1 this week
1 commentread comment
1 2 3 4 5
excellent!
x 3
add to favorites
launch autoscroll
font size
0
reset
guitar tuner
Autoscroll
slow
fast
+/-
esc
set tempo
stop
Help us to improve Ultimate-Guitar.com Take our survey!
×
Author
Difficulty
intermediate
 

Intro/Outro
G|----------------------|
D|----------------------|
A|-12/-88--88--88--7/---|
E|----------------------|
Verse
G|-------------------------------------------|
D|---2--320--------5-4-----------------------|
A|--3-3----3--2-5-3-2---232-5320--013-2-5----|
E|-5---------3---3-----5---------1---3---3---|
Chorus
G|------------------------------|
D|-------------12-12/-----------|
A|------10-10/-------12/-12/----|
E|-8-8/-------------------------|
Post Chorus
G|----------------------------------------------------------|
D|----------------/7-777-----532------/7-7777---------------|
A|-3333------5555--------3333----0000-----------------------|
E|------3333-----------------------------------00000000000--|
Interlude
G|------------------------------------|
D|------------------------------------|
A|-----8-8/----3-2--------------------|
E|-5-5-----3-3-----5-5-10-10/-1-1-3---|

G|-------------------------------------------|
D|---2--320--------5-4-----------------------|
A|--3-3----3--2-5-3-2---232-5320--013-2-5----|
E|-5---------3---3-----5---------1---3---3---|

G|-----------------------------------------------|
D|---2--320--------5-4---------------------------|
A|--3-3----3--2-5-3-2---232-5320--013------------|
E|-5---------3---3-----5---------1---3-3-3-33----|

Order:
Intro
Verse x4
Chorus x2
Post Chorus
Verse x4
Chorus x2
Post Chorus
Interlude
Post Chorus
Chorus x2
Post Chorus
Outro

pretty accurate i think.
Suggest correction
Give kudos to tab author, rate the tab!
1 2 3 4 5
comments
print report bad tab
1 comment total.
0 reply
BucketheadRules 279 wrote on January 8 2007, 03:24 pm

Awesome tab.

guest
You may want to rate the tab now too:
select rating
Please do not post tabs as comments. Select "correction" instead!