Oops, an error
Loading. Please wait.

Giving Up Giving In Bass Tab

version 1
version 1

Whole song

Interactive

1,309 views 1 this week
no commentswrite comment
1 2 3 4 5
please rate
add to favorites
launch autoscroll
font size
0
reset
guitar tuner
Autoscroll
slow
fast
+/-
esc
set tempo
stop
Help us to improve Ultimate-Guitar.com Take our survey!
×
Author
----------------------------------------------------------------------------
			     Giving up, Giving in - Catch 22
----------------------------------------------------------------------------

Tabbed By : 412

Tuning: standard
Intro 1 {no bass}

Intor 2
G|--------------------------------|
D|--------------------------------|
A|-3-2-0--------------------------|
E|-------3333333333333333---------|

Pre Verse
G|-----------------------------------------|
D|-----------------------------------------|
A|-----5555-2222-3-2-0-----5555-3333-5555--|
E|-3333----------------3333----------------|

G|-----------------------------------------|
D|-----------------------------------------|
A|-----5555-2222-3-2-0-----5555-3----------|
E|-3333----------------3333----------------|

Verse 4x
G|---------------------|
D|---------------------|
A|-----3333-2222-5555--|
E|-3333----------------|

Chours
G|-----------------------------------------------|
D|-----------------------------------------------|
A|-3333----5555-----3333-----5555----------------|
E|-----3333----3333------3333-----3-3-3-3-3-3----|

pre chours
verse 4x
chours
pre chours

then
G|----------|
D|----------|
A|-3-2-0----|
E|------3~--|

rest

then
G|-------|---------------------|  |---------------|
D|-------|---------------------|  |---------------|
A|-3-2-0-|-----555-22-3333-2-0-|3x|----555----3-3-|
E|-------|-3333----------------|  |3333-----------|


G|-------------------|  |--------------------|  |---------------|
D|-------------------|  |--------------------|  |---------------|
A|-----555--3333-2-0-|4x|-----555-22-333-2-0-|3x|-----555--3-3--|
E|-3333---00---------|  |-3333---------------|  |-3333----------|

Outro {a little faster}
G|-----------------------------------------|
D|-----------------------------------------|
A|-----5555-2222-3-2-0-----5555-3333-5555--|
E|-3333----------------3333----------------|

G|-----------------------------------------|
D|-----------------------------------------|
A|-----5555-2222-3-2-0-----5555-3----------|
E|-3333----------------3333----------------|

G|---|
D|---|
A|---|
E|-3-|





============================================================================
Suggest correction
Give kudos to tab author, rate the tab!
1 2 3 4 5
comments
print report bad tab
guest
You may want to rate the tab now too:
select rating
Please do not post tabs as comments. Select "correction" instead!