Oops, an error
Loading. Please wait.

Keasbey Nights Bass Tab

version 1
version 1

Whole song

Interactive

4,862 views 3 this week
1 commentread comment
1 2 3 4 5
accurate
x 3
add to favorites
launch autoscroll
font size
0
reset
guitar tuner
Autoscroll
slow
fast
+/-
esc
set tempo
stop
Help us to improve Ultimate-Guitar.com Take our survey!
×
Author
Difficulty
advanced
/=slide up
\=slide down
h=hammer on
p=pull off
~=let ring

josh ansley plays a fretless on the recording so all the ridiculouos sliding sounds a lot cleaner

intro:(after acoustic guitar)
g|---------------------------------|
d|---------------------------------|
a|---4-7-4---4-5-4---4-7-4-5-7-5-4-|
e|-5-------7-------5---------------|

g|-------------------------------|
d|-------------------------------|
a|---4-7-4---4-5-4---4-7-4-5-7---|
e|-5-------7-------5-----------5-|

Verse:(just the rhythm of the sliding, trust me its right)
g|-----------------------------------------|
d|-----------------------------------------|
a|---4-5-75----4/5\4/5-2/\4/2/4-\2-5-55-55-|
e|-5--------0~-----------------------------|

g|------------------------------------|
d|----------------6-------------------|
a|---4-5-7----6h7--7---6-7-97-5-55-55-|
e|-5-------0~--------7----------------|

Pre-Verse:
before the horn's solo thing:
g|------------------------------------------------------------|
d|-----------6/9\6-9\7/9--------------------------------------|
a|---4\----7-------------7--5-5----------------------7-7-7\---|
e|-5----------------------------00-000-00-000-00-000-----0~---|

after the horn solo thing:
g|-----------------------------------------------------------------|
d|---------------6----------------7--------------------------------|
a|---4-5/7---6h7--7---6-9-6-5---5------------------------7-7777777-|
e|-5-------0--------7---------5-----00-000-00-000-00-000-----------|

that leads right into the chorus

Chorus:
g|---------------------------------|
d|---------------------------------|
a|---------5-55-55---------7-77-77-|  x2
e|-5-55-55---------5-55-55---------|

Post-Chorus:
g|---------------|
d|---------------|
a|-----------5-4-|  x4, but stop on the a the last time
e|-55-555-55-----|

after that you recycle parts, its basically the saem thing but with a lot of variations thrown in
Suggest correction
Give kudos to tab author, rate the tab!
1 2 3 4 5
comments
print report bad tab
1 comment total.
0 reply
andrewcap 41 wrote on July 10 2008, 07:21 pm

it seems good, but i cant figure out the rhythm behind the sliding, its so difficult

guest
You may want to rate the tab now too:
select rating
Wanna post a correction for this tab? Suggest correction