Oops, an error
Loading. Please wait.

Keasby Nights Tab

16,376 views 12 this week
4 commentsread comments
1 2 3 4 5
accurate
x 14
add to favorites
launch autoscroll
font size
0
reset
how to read this tab
guitar tuner
Tab Pro tools
  • play this tab
  • loop segment
  • change instrument
  • show fretboard
  • metronome
×
Best way to learn
"Keasby Nights"
Autoscroll
slow
fast
+/-
esc
set tempo
stop
Catch 22 are a great band and this is a rad song enjoy
any qusetion correction hate mail send to d_o_a_666@hotmail.com


intro
5--4--7--4--5--4--2--4-------|
5--5--7--5--5--5--3--5-------|
6--4--8--4--6--4--2--4-------|
-----------------------------|
-----------------------------|
-----------------------------|

verse
5--4--7--4----|
5--5--7--5----|
6--4--8--4----|
--------------|
--------------|
--------------|


chorus
5--2--5--4----|
5--3--5--5----|
6--2--6--4----|
--------------|
--------------|
--------------|

verse
5--4--7--4----|
5--5--7--5----|
6--4--8--4----|
--------------|
--------------|
--------------|

5--2--5--4----|
5--3--5--5----|
6--2--6--4----|
--------------|
--------------|
--------------|
comments
print report bad tab
4 comments total. Showing first comments.
0 reply
Freddedonna wrote on March 26 2005, 12:00 am

I think that the intro goes like this:
e|-5-4-7-2-5-4-2-5-|
b|-5-5-7-3-5-5-3-5-|
g|-6-4-8-2-6-4-2-4-|

0 reply
Freddedonna wrote on March 26 2005, 12:00 am

Sorry, I ***ed up in my correction...:

e|-5-4-7-2-5-4-2-4-|
b|-5-5-7-3-5-5-3-5-|
g|-6-4-8-2-6-4-2-4-|

0 reply
astepabove wrote on June 8 2006, 07:47 pm

im gonna have to agree with freddedonna on that one

I want to post or [tab]
guest
You may want to rate the tab now too:
select rating
Please do not post tabs as comments. Select "correction" instead!