Oops, an error
Loading. Please wait.

Kristina Bass Tab

1,002 views 1 this week
no commentswrite comment
1 2 3 4 5
3 more votes to show rating
add to favorites
launch autoscroll
font size
0
reset
guitar tuner
Autoscroll
slow
fast
+/-
esc
set tempo
stop
Help us to improve Ultimate-Guitar.com Take our survey!
×
Author
Difficulty
intermediate
Song: Kristina She Don´t Know I Exist
Band: Catch 22
Album: Keasbey Knights
Bass Tab
Tabbed by: Epi. (Corrections or somehitng emailme - fabian_lerma@hotmail.com)
 
My first tab fellas, so dont expect the best.. just lisent to the song and get the timing right 
and i think the rest is ok. Play Chorus 1 in all 3. Same for verse 1 and 2, 3 is rest

/ = Slide up
\ = Slide Down
A = 10
B = 12
~ = Let it Ring
# = Rest

Intro

G:-------------------------------------------------------#---------|
D:------------------9--------5---------------------------#---------|
A:---------5-----5/7-7\-33--3-3-7-7-320------5----5/7-7-3#---------|
E:-5\3-5/7--7\-0-----------3------------3-5/7-7-0------7-#-2~------|

Verse 1 (0:18)

G:-----------------------------------------------------------------|
D:----------------3/5-2---------------------------------5----------|
A:---------57-33-3-----33/5-5-5-320---5----5/7-77---33-3-3-55-320--|
E:-5\3-5/7-------------------------3-3-2-0-------7\---3----------3-|

G:-----------------------------------------------------------------|
D:-----B\----------------------------------------------------------|
A:-3/A-------------------------------------------------------------|
E:-----------------------------------------------------------------|

                           
G:-----------------------------------------------------------------|
D:---------------5-----------------------------2-5-----------------|
A:-------5-7-33-3-3-55-5-320---5----5/7-5--33-----3-55-320---------|
E:-33-5/7------3------------3-3-2-0------7\---3-----------33-5/A\5-|

Chorus 1(0:40)

G:-----------------------------------------------------------------|
D:-------------3/5-------------------------------5------7-9-A-9----|
A:-------5-7-3-----7-3-55-320----------5/7-7--3-3-3-5/9------------|
E:-33-5/7--------------------3--3-2-0-------7--3-------------------|

G:-----------------------------------------------------------------|
D:-9/B-BB-A-9-9\-------------3/5-2-----------------------------5---|
A:-----------B-------2-5-33-3-----3-55-320--5/A-9\---5/7-7--3-3-3-5|
E:---------------33-3---------------------3--------0------7--3-----|

G:-#---------------------------------------------------------------|
D:-#---------------------------------------------------------------|
A:-#---------------------------------------------------------------|
E:-#-3-------------------------------------------------------------|

Then play the Intro part.But Start with: 
E:--A\3------------------------------------------------------------|

Verse 2 

Chorus 2 

Intrumental(6 Solos)
Most of the variations in this part it much depends on the rhytm and time so lisent carefully
to the song first notes are always the same.

First (1:58)
Bass Starts at (1:59)
G:-----------------------------------------------------------------|
D:---------------5-----------------------5-------------------------|
A:----------7\3-3-3-55-320--5/2-----7\3-3-3-5~---32----------------|
E:-5\3~-20~----3----------3~---30~-----3---------------------------|

G:-----------------------------------------------------------------|
D:-----------------5----------------------5------------------------|
A:--------7---3-3-3-5--320--------7\3-3--3-3-55-320----------------|
E:-3~-20~---33---3----------3~-20~-----3---------------------------|

Second (2:22)

G:-----------------------------------------------------------------|
D:-----5---------------------------------52---------------------52-|
A:----5----7\-3-3-3-5-5-5-3--------7--3-3--3-5-5-320-------7-3-3--3|
E:-3~---0~-----3------------3~-20~--0--3------------3~-20~----3----|


G:-----------------------------------------------------------------|
D:-----------------------------------------------------------------|
A:-55-3-2-0---5----7\3-3-3-2-3-4-55--320---------------------------|
E:---------3~--20~------3------------------------------------------|

Thirth (2:45)

G:-----------------------------------------------------------------|
D:-----------------------------------------5-----------------------|
A:--------7\3~-3-5-3-2-0-2-0--------7---3-3-3-55-5-320-------7-7\--|
E:-3~-20~--------------------3~-20~--5\--3------------3~-20~--7----|

G:-----------------------------------------------------------------|
D:----5------------------------------------------------------------|
A:-3-3-3-5~-5/A~-9---5/7\-3-3-3-2-3-55-3-2-0-----------------------|
E:--3-------------0~-------3---------------------------------------|

Fourth (3:07)

G:-----------------------------------------------------------------|
D:--------------5--------------------------------------------------|
A:--------7\-3-3-3-5-3-2-0-2-0--------77---3~-3-5-3-2-0-2-5--------|
E:-3~-20~-----3----------------3~-20~---7\---3--------------3~-20~-|

G:-----------------------------------------------------------------|
D:----------------------------------------5------------------------|
A:-7\-3-3-3-3/5-5-5-5-3-2--------7---3---3-3-5-5-3-----------------|
E:------------------------3~-20~--7\---3---------------------------|

Guitar Solo (3:30)

G:-------------------------------------------------------------------|
D:-------------------------------------------------------------------|
A:-------3~-3/5\--------3~-3/5-5/A-A--7-7---3-3---5-5----A-A---7-7---|
E:-3~-20~--------3~-20~-----------A-A\-7-7\--3-3/--5-5/---A-A\--7-7\-|


G:-----------------------------------------------------------------|
D:-----------------------------------------------------------------|
A:-3-3---5-5-------------------------------------------------------|
E:--3-3/--5-5\-----------------------------------------------------|

Bass Solo (3:53)

G:--------------------------9--------------------------------------|
D:------------------9--9/A-A-A-B~--A-9-7\------------------9-------|
A:---------5----5/7--7----A----------------------5----5/7-7-7\-----|
E:-5\3-5/7--7-0----------------------------3-5/7--7-0----7---------|

G:----------------------#------------------------------------------|
D:----2-5---------------#------------------------------------------|
A:-3-3---3-5-3-2-0-2-0--#------------------------------------------|
E:--3-----------------3-#------------------------------------------|

Verse 3 (Rest)

Chorus 3

Outro 

G:--------------------------------------------------#--------------|
D:-------------9-------5----------------------------#--------------|
A:---2-5-2--5/7-7\--3-3-3-5-3-2-0-2-0-------5/7-7-3-#--------------|
E:-33-----0----------3---------------3~-20~----7----#-2~--3~-------|


and thats it.. enjoy :)
Suggest correction
Give kudos to tab author, rate the tab!
1 2 3 4 5
comments
print report bad tab
guest
You may want to rate the tab now too:
select rating
Wanna post a correction for this tab? Suggest correction