Oops, an error
Loading. Please wait.

On And On And On Bass Tab

version 1
version 1

Whole song

Interactive

3,161 views 3 this week
3 commentsread comments
1 2 3 4 5
accurate
x 4
add to favorites
launch autoscroll
font size
0
reset
guitar tuner
Tab Pro tools
  • play this tab
  • loop segment
  • change instrument
  • show fretboard
  • metronome
×
Best way to learn
"On And On And On"
Autoscroll
slow
fast
+/-
esc
set tempo
stop
Contributor
Difficulty
intermediate
-----------------------------------------------------------------------
			     On & On & On – Catch 22
-----------------------------------------------------------------------

Tabbed By : Greg Niermeyer
e-mail: gniermey@student.umass.edu

slide - /
let ring - ~
this is not 100%, but this tab is nonexistent online to my knowledge, so this is a 
of the catch 22 and streetlight versions. i have a show in less than two weeks and just used 
to make it easier on myself. everything sounds fine.

intro
G|--------------------------------------------------|
D|--------------------------------------------------|
A|-3-------3-------3--------------------------------|
E|-----5-3-----1-3-----5-3-1~~~3--------------------|

Pre verse
G|-----------9---7-----------5---7-----------9---7----------------------|
D|-------5-7---5---------5-3---5---------5-7---5-------------------3----|
A|-3---57----------3---57---------3---57------------1-2-3-----3-5-------|
E|-------------------------------------------------1-------3------------|

verse
G|---------------------------------------2-5-5-5-5-577-7775------4-----|
D|---3-4-5-------------------2-2-2-3---3-------------------5-5-7-------|
A|-3---------3-4-5---7-5-3-----------3---------------------------------|
E|---------3-------5-------0-------------------------------------------|

G|---------------------------------2-0-----0---------------5-----------|
D|---3-4-5-------------------2-2-2-----3-2---3-2-0-3-2-0-2---5-2-------|
A|-3---------3-4-5---7-5-3---------------------------------------3-----|
E|---------3-------5-------0-------------------------------------------|

Pre-chorus
G|---------------------------------------------------------------------|
D|-----------------0-2-3-0-5-3-2-0-------------------------------------|
A|---------3-3---3-----------------------------------------------------|
E|-1-1---1-------------------------------------------------------------|

chorus
G|---------------------------------------------------0-2---------------|
D|-------------------------------------------------2-----3---7---5-----|
A|-----------------3-3-2-2-0-0-----------------------------------------|
E|-1-1-1-1-3-3-3-3-------------3-3-1-1-1-1-3-3-3-3-----------5---3-----|

G|-2-0-----------------------------------------------------------------|
D|-----3-2-------------------------------------------------------------|
A|-----------0-2-0-3---2---0-------------------------------------------|
E|---------3---------------------1-------3-----------------------------|

Pre-verse - replace last three notes with:
G|-5-3------|
D|-----5----|
A|----------|
E|----------|

Verse
Pre-chorus
Chorus

Bridge                             canon starts here
G|---------------------------------------------------------------------|
D|---------------------------------------------------------------------|
A|-3~~~~~~~~~~~~~~~~~~~~~~~~~~~~~~~3-------0-----------3---5-----------|
E|-------------------------------------3-------0---1-----------3-------|

G|-------------------------------------|
D|-------------------------------------|
A|-3-------0-----------3---5-----------|
E|-----3-------0---1-----------3-------|

G|---------------------------------------------------------------------|
D|---------------------------------------------------------------------|
A|-33------00----------33--55------33------00----------33--55----------|
E|-----33------00--11----------33------33------00--11----------33------|

G|---------------------------------------------------------------------|
D|---------------------------------------------------------------------|
A|-3-------0-----------3---5-------3-------0-----------3---5-----------|
E|-----3-------0---1-----------3-------3-------0---1-----------3-------|
   Bass rests a little here…when it comes in:
G|-------------------9---7-----------------------------------2---0-----|
D|---------------------------------------------------2---2-------------|
A|---1-2-3---2-3-5-7---5---3-2-0-----1-2-3---2-3-5---------------------|
E|-1-------3---------------------0-1-------3-------0---0---------------|

G|---------------------------------------------------------------------|
D|---------------------------------------------------------------------|
A|---1-2-3---2-3-5-3---2---0-----------------------3~~~~---------------|
E|-1-------3-----------------------1-------3---------------------------|

Ending part 1
G|---------------------------------------------------------------------|
D|-5-5-5-5-3-3-3-3-5-5-5-5-5-5-5-5-5-5-5-5-3-3-3-3-5-5-5-5-5-5-5-5-----|
A|--3-3-3-3-3-3-3-3-3-3-3-3---------3-3-3-3-3-3-3-3-3-3-3-3------------|
E|--------------------------3-3-3-3-------------------------3-3-3------|

Part 2
G|---------------------------------------------------------------------|
D|---------------------------------------------------------------------|
A|-3-3-3-3---------3-3-3-3---------3-3-3-3--------3-3-3-3--------------|
E|---------1-1-1-1---------3-3-3-3---------1-1-1-1--------3-3-3-3------|

Part 1 again

Then
G|---------------------------------------------------------------------|
D|-5-5-5-5-3-3-3-3-5-5-5-5-5-5-5-5-5-5-5-5-3-3-3-3-55------55----------|
A|--3-3-3-3-3-3-3-3-3-3-3-3---------3-3-3-3-3-3-3-3----55------3~~~----|
E|--------------------------3-3-3-3------------------------------------|
comments
print report bad tab
3 comments total.
0 reply
quiznosity wrote on March 14 2007, 12:39 pm

this is what catch 22 plays for that little bass solo thing after canon.

G|-----------------------------------------------------------2---0-----|
D|-------------------5---5---77777--------------------2---2-------------|
A|---1-2-3---2-3-5-3---2---0---------1-2-3---2-3-5---------------------|
E|-1-------3-----------------------1-------3-------0---0---------------|

0 reply
quiznosity wrote on March 14 2007, 12:40 pm

there was a typo..

G|-----------------------------------------------------------2---0-----|
D|-------------------5---5---77777-------------------2---2-------------|
A|---1-2-3---2-3-5-3---2---0---------1-2-3---2-3-5---------------------|
E|-1-------3-----------------------1-------3-------0---0---------------|

0 reply
calvinAtor17 wrote on August 11 2007, 11:20 am

very good job man.... i do believe there are alot of hammer ons and pulloffs, it made it easier for me too play.

I want to post or [tab]
guest
You may want to rate the tab now too:
select rating
Please do not post tabs as comments. Select "correction" instead!