Oops, an error
Loading. Please wait.

Riding The Fourth Wave Tab

1,514 views 3 this week
3 commentsread comments
1 2 3 4 5
excellent!
x 4
add to favorites
launch autoscroll
font size
0
reset
how to read this tab
guitar tuner
Tab Pro tools
  • play this tab
  • loop segment
  • change instrument
  • show fretboard
  • metronome
×
Best way to learn
"Riding The Fourth Wave"
Autoscroll
slow
fast
+/-
esc
set tempo
stop
this is the flute intro

Part 1
E--------------------------------------------------------------
B--------------------------------------------------------------
G--9-999-7--9-9-99-11-12-11-9-999-7-------9-9-7-7-6-6-8-9-10---
D----------9------------------------9-7-9--9---9---7-----------
A--------------------------------------------------------------
E--------------------------------------------------------------

E--------------------------------------------------------------
B--------------------------------------------------------------
G--9-999-7-----------------------------------------------------
D---------9-7-9------------------------------------------------
A--------------------------------------------------------------
E--------------------------------------------------------------
comments
print report bad tab
3 comments total.
0 reply
willemdekam wrote on October 26 2004, 12:00 am

E--------------------------------------------------------------
B--------------------------------------------------------------
G--9-999-7--9-9-99-11-12-11-9-999-7-------9-9-7-7-6-6-8-9-10---
D----------9------------------------9-7-9--9---9---7-----------
A--------------------------------------------------------------
E--------------------------------------------------------------

I think the last 10 should be an eleven :)
overall gj

0 reply
ursaMAJOR wrote on August 26 2007, 06:09 pm

He's right about the 11. Good tab!

0 reply
bfffan wrote on June 16 2010, 12:49 am

E G C B

E G B

E G A B

E G B (all major chords, probably 6 string barre chords)

Simple, yet catchy song!

I want to post or [tab]
guest
You may want to rate the tab now too:
select rating
Please do not post tabs as comments. Select "correction" instead!