Oops, an error
Loading. Please wait.

Thinking About Things Bass Tab

285 views 1 this week
no commentswrite comment
1 2 3 4 5
please rate
add to favorites
launch autoscroll
font size
0
reset
guitar tuner
Tab Pro tools
  • play this tab
  • loop segment
  • change instrument
  • show fretboard
  • metronome
×
Best way to learn
"Thinking About Things"
Autoscroll
slow
fast
+/-
esc
set tempo
stop
Contributor
Tabbed By : Xcrimson_ghostX
e-mail: skawful27@aim.com

Tuning: standard

Intro
G|--------------------------------------------------------|
D|--------------------------------------------------------|
A|-5--5--5-5-5-6-7--7--7h9p7------------5---5--5--5-5-5-4-|
E|--------------------------0-5--5--5-5---5---------------|

G|--------------------------------------------------------|
D|----------------------------------7-7---7---------------|
A|-5--5--5-5-5-6-7--7--7h9p7------------5---5--5--5-5-5-4-|
E|--------------------------0-5--5------------------------|

G|--------------------------------|
D|-----------------7*-------------|Follow quickly with Verse
A|-5*----7*------------5--5--5--4-|
E|-------------5*-----------------|

Verse 1
G|-----------------------------------|
D|---4-5-7---------------------------|
A|-5-------7-5-4-----4-5-7-5---5-----|
E|---------------7-5---------5---(5)-|

G|--------------------------------------------------------------|
D|--------------------------------------------------------------|
A|-5-5-5-5-5-5-5-6-7-7-7-7-7-7-7-7---------------7-5-5-5-5-5--4-|
E|---------------------------------5-5-5-5-5-5-5----------------|

G|----------------------------------------------|
D|---77----------77-----------7-5-4-------------|
A|-5--------7--5--------7--5--------7--------7--|
E|------5-5--5------5-5--5------------0r-5-5--5-|

Chorus 1
G|------------------------------------------------------------------|
D|------------------------------------------------------------------|
A|-5-5-5-5---------5-5-5-5-/9-9-7-7-5-5-5-5-------------------------|
E|---------5-5-3-3--------------------------7-7-5-5-3-3-3-3-5-5-5-5-|

Verse 2
G|---------------------------------|
D|---4-5-7-------------------------|
A|-5-------7-5-4-----4-5-7-5---5---|
E|---------------7-5---------5---5-|

Chorus 2
G|------------------------------------------------------------------|
D|------------------------------------------------------------------|
A|-5-5-5-5---------5-5-5-5-/9-9-7-7-5-5-5-5-------------------------|
E|---------5-5-3-3--------------------------7-7-5-5-3-3-3-3-5-5-5-5-|

G|-----------------------------------------------------------------|
D|-----------------------------------------------------------------|
A|---------------------------------5-5-5-5-5-5-5-5-----------------|
E|-7-7-7-7-7-7-7-7-3-3-3-3-3-3-3-3-----------------5-5-5-5-5-5-5-5-|

G|-----------------------------------------------------------------|
D|-----------------------------------------------------------------|
A|-----------------------------------------------------------------|
E|-7-7-7-7-7-7-7-7-3-3-3-3-3-3-3-3-5-5-5-5-5-5-5-5-5-5-5-5-5-5-5-5-|

Verse variation
G|-----------------------------------------------------|
D|-------------------------------7---------------------|
A|-5--5--5-5-5-6-7--7--7h9p7------------4-7-5--5--5--4-|
E|--------------------------0-5-----5-5----------------|

G|------------------------------------------------------|
D|------------------------------------------------------|
A|-5--5--5-5-5-6-7--7--7-5-4-------------4-7-5--5--5--4-|
E|---------------------------7-5--5--5-5----------------|

Outro
G|------------------------------------------------------------------|
D|------------------------------------------------------------------|
A|-5-5-5-5---------5-5-5-5-/9-9-7-7-5-5-5-5-------------------------|
E|---------5-5-3-3--------------------------7-7-5-5-3-3-3-3-5-5-5-5-|

G|----------------------------------------------------|
D|----------------------------------------------------|
A|-5-5-5-5---------5-5-5-5-/9-9-7-7-5-5-5-5---------5-|
E|---------5-5-3-3--------------------------7-5-3-5---|


| /  slide up
| \  slide down
| h  hammer-on
| p  pull-off
| ~  vibrato
| +  harmonic
| x  Mute note
===============================================================================
comments
We did not receive enough feedback on this tab! Please rate:
print report bad tab
1 2 3 4 5
I want to post or [tab]
guest
You may want to rate the tab now too:
select rating
Please do not post tabs as comments. Select "correction" instead!