Oops, an error
Loading. Please wait.

Walking Away Bass Tab

version 1
version 1

Whole song

Interactive

5,300 views 3 this week
no commentswrite comment
1 2 3 4 5
accurate
x 6
add to favorites
launch autoscroll
font size
0
reset
guitar tuner
Tab Pro tools
  • play this tab
  • loop segment
  • change instrument
  • show fretboard
  • metronome
×
Best way to learn
"Walking Away"
Autoscroll
slow
fast
+/-
esc
set tempo
stop
Song:     Walking Away
Band:     Catch 22
Bassist:  Josh Ansley
Tabber:   James Bradley (jrbradley@hotmail.com)

Okay, this song is super cool, but super hard (at least to tab).
I can't guarantee that it is right (actually, I can guarantee that
it's not quite right), but it's as good as I can get, and since there's
no other tab up yet, this will have to do.

~ means vibrato

Intro/Verse:
G----10---7---------------7----------|--------------10~7~-------------
D--8----8---8-10-7---7-10---10-7-----|--------5-6-8------8------------
A------------------8-------------8-6-|--5-6-8--------------6---6-6-6-6
E------------------------------------|-6---------------------6--------


G---------------------------------------------------------------------
D-----7--8--10--------------------------------------------------------
A--8-(6)(5)-----------------------------------------------------------
E-----------(8)-------------------------------------------------------
I know it's not really right, but I just keep repeating what's after
the bar.  There's a few parts that you have to fill in with other
things, but that's not too hard to figure out.

Chorus:
G---------------------------------------------------------------------
D---------------------------------------------------------------------
A--6-6-6-6-------------------------6-6-6-6-5-5-5-5--------------------
E----------6-6-6-6-8-8-8-8-6-6-6-6-----------------8-8-8-8-6-6-6-6----

G---------------------------------------------------------------------
D----5-8-5---------------------------5-8-5-----------5-8-5------------
A--6---------5-8-5---10-8-6--5-8-5-6---------5-8-5-6------------------
E----------6-------8--------6--------------6--------------------------

G---------7-8-7----7--------------------------------------------------
D----7-10-------10----------------------------------------------------
A--8------------------------------------------------------------------
E---------------------------------------------------------------------

Well, if anyone else can add anything to this or fix anything, feel
free.  It's a totally tough song to figure out, just like all their
songs.  Enjoy.
comments
print report bad tab
I want to post or [tab]
guest
You may want to rate the tab now too:
select rating
Please do not post tabs as comments. Select "correction" instead!