Oops, an error
Loading. Please wait.

Wine Stained Lips Tab

version 1
version 1

Whole song

2,556 views 1 this week
no commentswrite comment
1 2 3 4 5
excellent!
x 3
add to favorites
launch autoscroll
font size
0
reset
how to read this tab
guitar tuner
Autoscroll
slow
fast
+/-
esc
set tempo
stop
Help us to improve Ultimate-Guitar.com Take our survey!
×
Well, I'm positive that this thing is correct. I hope all you ska lovers out there enjoy 
--"armpit" (kayla)

p = pick off
h = hammer
/ = slide
~ = vibrato (shake it)
Intro

e|-------------------------------------------------------------------|
B|-------------------------------------------------------------------|
G|-------------------------------------------------------------------|
D|-------------------------------------------------------------------|
A|---------2/3-0--------3p0-2--------2/3-0--------3p0-2--------2/3-0-|
E|-3-3--3--------3-3--3-------3-3--3-------3-3--3-------3-3--3-------|

--------------------------------------------------------------------|
--------------------------------------------------------------------|
--------------------------------------------------------------------|
---------------------------0h2--------------0-2---------------------|
--------3p0-2--------2/3-0----0-0h2-0---0h2-------------------------|
-3-3--3-------3-3--3------------------3-----------------------------|

[ ----------------------------------------------------------------------| ]
[ ----------------------------------------------------------------------| ]
[ ----------------------------------------------------------------------| ]
[ ---0-2-0---------0-2-0---------0-2-0-----0h2--------------------------| x2
[ -2-------3/2---2-------3/2---2-------3/2-----0-0h2-0------------------| ]
[ ----------------------------------------------------------------------| ]

Verse

[G, C, G, D]x4
 C, G, D, G
 C, G, D

Chorus

e|--------------------------------------| ]
B|--------------------------------------| ]
G|-------------------5-5-5-5------------| ]
D|-5-5-5-5--2-2-2-2--5-5-5-5--5-5-5-5---| x2
A|-5-5-5-5--2-2-2-2--3-3-3-3--5-5-5-5---| ]
E|-3-3-3-3--0-0-0-0-----------3-3-3-3---| ]

Interlude

e|----------------------|
B|----------------------|
G|----------------------|
D|-0h2--------------0-2-|
A|----0-0h2-0---0h2-----|
E|------------3---------|

[ ----------------------------------------------------------------------| ]
[ ----------------------------------------------------------------------| ]
[ ----------------------------------------------------------------------| ]
[ ---0-2-0---------0-2-0---------0-2-0-----0h2--------------------------| x2
[ -2-------3/2---2-------3/2---2-------3/2-----0-0h2-0------------------| ]
[ ----------------------------------------------------------------------| ]

Verse

[G, C, G, D,] x2
 C, G, D, G,
 C, G, D

Chorus

e|--------------------------------------| ]
B|--------------------------------------| ]
G|-------------------5-5-5-5------------| ]
D|-5-5-5-5--2-2-2-2--5-5-5-5--5-5-5-5---| x4
A|-5-5-5-5--2-2-2-2--3-3-3-3--5-5-5-5---| ]
E|-3-3-3-3--0-0-0-0-----------3-3-3-3---| ]

Solo

e|--/10-10-10--------------------8/7----7----------------|
B|------------10-12-10--8---8--------10---10-8-------8---|
G|------------------------9----9----------------9-7--7---|
D|-------------------------------------------------------|
A|-------------------------------------------------------|
E|-------------------------------------------------------|

---------8p7--7--10p7--7---8p7--7--10p7--7----------------8/7-----|
------8-------8--------8--------8--------8------8-------8-----8-8-|
-7-9--7------------------------------------7-9--7--7-9--7-----7-7-|
------------------------------------------------------------------|
------------------------------------------------------------------|
------------------------------------------------------------------|

-----7---------------7---------------7--------------------|
-8-8---8-8-10-8--8-8---8-8-10-8--8-8---8-8-10-8--8-8-10-8-|
-7---------------7---------------7---------------7-7--7-7-|
----------------------------------------------------------|
----------------------------------------------------------|
----------------------------------------------------------|

------------------------------------------------|
-8p7-8p7----------------------------------------|
---------9-7---7--------------------------------|
-------------9---9------------9-7------7--------|
-------------------10---10-10-----10-9---10~~~~-|
------------------------------------------------|

Bridge

e|-------------------------------------------------------|
B|-------------------------------------------------------|
G|-9-9-9--7-7-7--5-5-5---------9-9-9--7-7-7--4--5--7-7-7-|
D|-9-9-9--7-7-7--5-5-5--5-5-5--9-9-9--7-7-7--4--5--7-7-7-|
A|-7-7-7--5-5-5--3-3-3--5-5-5--7-7-7--5-5-5--2--3--5-5-5-|
E|----------------------3-3-3----------------------------|

---------------------------------------------------------|
---------------------------------------------------------|
-9-9-9---------5-5-5---------9-9-9--7-7-7------------7-7-|
-9-9-9--9-9-9--5-5-5--5-5-5--9-9-9--7-7-7--10--9--7--7-7-|
-7-7-7--9-9-9--3-3-3--5-5-5--7-7-7--5-5-5--10--9--7--5-5-|
--------7-7-7---------3-3-3-----------------8--7--5------|

Chorus

e|--------------------------------------| ]
B|--------------------------------------| ]
G|-------------------5-5-5-5------------| ]
D|-5-5-5-5--2-2-2-2--5-5-5-5--5-5-5-5---| x4
A|-5-5-5-5--2-2-2-2--3-3-3-3--5-5-5-5---| ]
E|-3-3-3-3--0-0-0-0-----------3-3-3-3---| ]

Ending

e|-------------------------|
B|-------------------------|
G|-------------------------|
D|-0h2--------------0-2----|
A|----0-0h2-0---0h2--------|
E|------------3----------3-|
Suggest correction
Give kudos to tab author, rate the tab!
1 2 3 4 5
comments
print report bad tab
guest
You may want to rate the tab now too:
select rating
Wanna post a correction for this tab? Suggest correction