Oops, an error
Loading. Please wait.

Anything bass

2,147 views 33 this week
no commentswrite comment
1 2 3 4 5
x 4
add to favorites
×
Save as Personal and add changes to this tab that will be seen only by you. Learn more ›
×
You can save this tab as Personal to edit and correct it or add notes. All changes will be seen only by you. Learn more »
launch autoscroll
font size
0
reset
guitar tuner
edit
Autoscroll
slow
fast
+/-
esc
set tempo
stop
Author
Tabbed by Dan Carroll
Catfish and the Bottlemen - Anything
The Ride *2016*

Listen to the song for timings but it should be easily tabbed throughout, feel free to point out
any mistakes and enjoy playing this mega tune.

[Verse]

["It gets difficult to talk when you nearly deafen me 'cos you start laughing"]

G|---------------------------------------------------------------------------|
D|---------------------------------------------------------------------------|
A|-----------9-9-9-9-9-9-9-9-9-9-9-9-9-9-9-9--7-7-7-7-7-7-7-7-7-7-7-7-7-7-7-7|
E|---------------------------------------------------------------------------|

G|---------------------------------------------------------------------------|
D|---------------------------------------------------------------------------|
A|5-5-5-5-5-5-5-5--4-4-4-4-4-4-4-4-------------------------------------------|
E|---------------------------------2-2-2-2-2-2-2-2-2-2-2-2-2-2-2-2-0-2-0-----| x4


[Chorus]

["I won't smoke if you don't no more, 'cos i know you hate the taste of it"]

G|---------------------------------------------------------------------------|
D|---------------------------------------------------------------------------|
A|-5---5---5---5---/12---12---12---12\4---4---4---4---/9---9---7---7---------|
E|---------------------------------------------------------------------------| x3

final time
G|---------------------------------------------------------------------------|
D|---------------------------------------------------------------------------|
A|-5---5---5---5---/12---12---12---12\4---4---4---4---/9---9---7---7--5-5-5-5|
E|---------------------------------------------------------------------------| 


[Verse]

[You know i always try to settle ya']
G|---------------------------------------------------------------------------|
D|---------------------------------------------------------------------------|
A|-----------9-9-9-9-9-9-9-9-9-9-9-9-9-9-9-9--7-7-7-7-7-7-7-7-7-7-7-7-7-7-7-7|
E|---------------------------------------------------------------------------|

G|---------------------------------------------------------------------------|
D|---------------------------------------------------------------------------|
A|5-5-5-5-5-5-5-5--4-4-4-4-4-4-4-4-------------------------------------------|
E|---------------------------------2-2-2-2-2-2-2-2-2-2-2-2-2-2-2-2-----------| 

G|---------------------------------------------------------------------------|
D|---------------------------------------------------------------------------|
A|-5-5-5-5-5-5-5-5-4-4-4-4-4-4-4-4-------------------------------------------|
E|--------------------------------2-2-2-2-2-2-2-2-2-2-2-2-2-2-2-2-2-2-2-2-2-2| (keep playing 2 until chorus)


[Chorus]

["I won't smoke if you don't no more, 'cos i know you hate the taste of it"]

G|---------------------------------------------------------------------------|
D|---------------------------------------------------------------------------|
A|-5---5---5---5---/12---12---12---12\4---4---4---4---/9---9---7---7---------|
E|---------------------------------------------------------------------------| x3

final time
G|---------------------------------------------------------------------------|
D|---------------------------------------------------------------------------|
A|-5---5---5---5---/12---12---12---12\4---4---4---4---/9---9---7---7--5-5-5-5|
E|---------------------------------------------------------------------------| 

[Bridge]

 [Anything you need at any time at all, i want you to phone me]
G|---------------------------------------------------------------------------|
D|---------------------------------------------------------------------------|
A|---------------------------------------------------------------------------|
E|-2------------------------/5---------------------------/10-----------------| x2

 [Anything you need at any time at all, i want you to phone me] SECOND TIME
G|---------------------------------------------------------------------------|
D|--------------------------------------------------12-12-12-12-12-12-12-12--|
A|-9--9--9--9--9--9--9-/12--12--12--12--12--12--12---------------------------|
E|---------------------------------------------------------------------------|

 [Cause everything you feel on every night alone is because you need me]
G|---------------------------------------------------------------------------|
D|-16--16--16--16--16--16--16--16-19--19--19--19--19--19--19--19-------------|
A|--------------------------------------------------------------12-12-12-12--|
E|---------------------------------------------------------------------------|


[Guitar Solo]

G|---------------------------------------------------------------------------|
D|---------------------------------------------------------------------------|
A|-----------9-9-9-9-9-9-9-9-9-9-9-9-9-9-9-9--7-7-7-7-7-7-7-7-7-7-7-7-7-7-7-7|
E|---------------------------------------------------------------------------|

G|---------------------------------------------------------------------------|
D|---------------------------------------------------------------------------|
A|5-5-5-5-5-5-5-5--4-4-4-4-4-4-4-4-/9-9-9-9-9-9-9-9-9-9-9-9-9-9-9-9-9-9-9-9-9|
E|---------------------------------------------------------------------------| 

G|---------------------------------------------------------------------------|
D|---------------------------------------------------------------------------|
A|-7-7-7-7-7-7-7-7-7-7-7-7-7-7-7-7-5-5-5-5-5-5-5-5-4-4-4-4-4-4-4-4-/999999999|
E|---------------------------------------------------------------------------|

[Chorus]

["I won't smoke if you don't no more, 'cos i know you hate the taste of it"]

G|---------------------------------------------------------------------------|
D|---------------------------------------------------------------------------|
A|-5---5---5---5---/12---12---12---12\4---4---4---4---/9---9---7---7---------|
E|---------------------------------------------------------------------------| x3

final time
G|---------------------------------------------------------------------------|
D|---------------------------------------------------------------------------|
A|-5---5---5---5---/12---12---12---12\4---4---4---4---/9---9---7---7--5-5-5-5|
E|---------------------------------------------------------------------------| 


[Verse] THIS GRADUALLY SLOWS DOWN TOWARDS THE END

[You know i always try to settle ya']
G|---------------------------------------------------------------------------|
D|---------------------------------------------------------------------------|
A|-----------9-9-9-9-9-9-9-9-9-9-9-9-9-9-9-9--7-7-7-7-7-7-7-7-7-7-7-7-7-7-7-7|
E|---------------------------------------------------------------------------|

G|---------------------------------------------------------------------------|
D|---------------------------------------------------------------------------|
A|5-5-5-5-5-5-5-5--4-4-4-4-4-4-4-4-------------------------------------------|
E|---------------------------------2-2-2-2-2-2-2-2-2-2-2-2-2-2-2-2-----------| 

************************************

| x   Dead note
| g   Grace note
| (n) Ghost note
| h   Hammer-on
| p   Pull-off
| r   Release
| >   Accented note
| t   Tapping
| b   Bend
| br  Bend release
| pb  Pre-bend
| pbr Pre-bend release
| /   Slide up
| \   Slide down
| ~   Vibrato
| s   Slap
| P   Pop
| PM  Palm mute
| TR  Trill
| N   Tremolo

************************************
Suggest correction
Creating personal tab
Creating personal tab
You can edit any tab online and save it as your Personal.

You can edit, replace or remove any tab part or add personal notes – all changes will be seen only by you.

Personal tabs can be accessed anytime from any device, even offline.
Learn more »
comments
print report bad tab
guest
You may want to rate the tab now too:
select rating
Wanna post a correction for this tab? Suggest correction