Oops, an error
Loading. Please wait.

Ayatollah tab

79 views 3 this week
2 commentsread comments
1 2 3 4 5
3 more votes to show rating
add to favorites
×
Save as Personal and add changes to this tab that will be seen only by you. Learn more ›
×
You can save this tab as Personal to edit and correct it or add notes. All changes will be seen only by you. Learn more »
launch autoscroll
font size
0
reset
how to read this tab
guitar tuner
edit
Autoscroll
slow
fast
+/-
esc
set tempo
stop
Ayatollah by Catfish and the Bottlemen
tab by striker19191

Chords used in this tab:
Am : 00221x
B7 : x24236
G  : 320033
Em : 022000
C  : 332010
Bm : 224432
D  : x00232

Capo 4th fret

[Intro]
Am B7 G

[Verse]
For these chords, stay on the bassy side and keep it short

Em             C
Let me see you get yourself
            Em
out of this situation
             C
Go ahead, accommodate me
                Em
You said, "I've missed this mattress,
         C
and I've missed being classless,
         Em                      C
and this district's lifeless."

Little lead part in second half:
e|------------------------------------|
B|------------------------------------|
G|------------------------------------|
D|--2/4/5/7/5/2~0/2/5/2~2/4/5/7/5/2~--|
A|------------------------------------|
E|------------------------------------|

[Pre-chorus]
e|-2~------3~---0~---0~----|
B|-0~------0~---0~---1~----|
G|-0~------0~---0~---0~----|
D|-2~------2~---2~---2~----|
A|-2~------2~---2~---3~----|
E|-0~------0~---0~---3~----|

(I see potential in her)

(x2)

[Second Verse]
               Em         G
See I was only messing
               Bm
When I used to joke about
D                            Em             G
Lettin you down yes I'll let you know
              Bm             D
Once I've overdone it
                  Em         G
Just listen I was dreadin
                 Bm
Sweetheart I was dreadin
D                           Em              G
Meetin your brother cause I know how he can get
Bm                D
Sometimes

[Pre-chorus]
Same as first time until just before the chorus:
e|-2~------3~---0~---0-00-00--0--------|
B|-0~------0~---0~---1-11-11--1--------|
G|-0~------0~---0~---0-00-00--2b4------|
D|-2~------2~---2~---2-22-22--0--------|
A|-2~------2~---2~---3-33-33--3--------|
E|-0~------0~---0~---3-33-33--3--------|

[Chorus]
Em
   Call me in the morning
C
   When you've mixed up all your medicine
Em                                      C
   I'll make you feel a little better
Em
   Show me in the evening
C
   Until you've disembarked
Em                                   C
   And had a sudden change of heart

[Instrumental]
Am  B7  G

[Solo]
Rhythm guitar plays Em C Em C, at first arpeggiated and then strummed later--just listen

Note: I was too lazy to figure out the notes based on where the capo is, so these are the actual
         frets on the guitar, forget about the capo for now

The first part of this you can play around with, I think he uses some effects to jump the octave
and stuff but this is how I've been playing it, and you can kind of screw around with the bending.

e|------------------------------14------------------------|
B|-------------------14b16b14b16--16b14-------------------|
G|-------------------------------------11-11b13b11b13b11--|
D|----11b13b11b13b11--------------------------------------|
A|--------------------------------------------------------|
E|--------------------------------------------------------|

e|----12-12-11-----12-12-11--------------------------------------|
B|-------------12~----------12-----------------------------------|
G|------------------------------10b11--10b11--10b11--------------|
D|------------------------------10b11--10b11--10b11---11p9---9~--|
A|--------------------------------------------------------11-----|
E|---------------------------------------------------------------|

e|----12-12-11-----12-12-11-------------------------------------------------------------------------|
B|-------------12~----------12~--12-11----11--------------------------------------------------------|
G|-------------------------------------13----13-11-13-11----11--------------------------------------|
D|-------------------------------------------------------14----14-13-14-13-11-13-11-9-11-9-11-11b---|
A|--------------------------------------------------------------------------------------------------|
E|--------------------------------------------------------------------------------------------------|

[Pre-chorus/Chorus]
Em  C
    (I see potential in her)
Em  C
    (I see potential in her)
Em                      C
   Call me in the morning when you've mixed up all your medicine
                        (I see potential in her)
[Outro]
e|-2~------3~---0~---0~----|
B|-0~------0~---0~---1~----|
G|-0~------0~---0~---0~----|
D|-2~------2~---0~---2~----|
A|-2~------2~---2~---3~----|
E|-0~------0~---3~---3~----|
Suggest correction
Creating personal tab
Creating personal tab
You can edit any tab online and save it as your Personal.

You can edit, replace or remove any tab part or add personal notes – all changes will be seen only by you.

Personal tabs can be accessed anytime from any device, even offline.
Learn more »
Give kudos to tab author, rate the tab!
1 2 3 4 5
comments
print report bad tab
2 comments total.
0 reply
Iest123 532 May 13, 2017 08:12 PM

Good tab, there are two guitars though.

guest
You may want to rate the tab now too:
select rating
Wanna post a correction for this tab? Suggest correction