Oops, an error
Loading. Please wait.

Bite Down Salvador tab

version 1
version 1

Whole song

  • Both guitars are tabbed, the tabbed part for guita... Show more
2,041 views 24 this week
3 commentsread comments
1 2 3 4 5
x 9
add to favorites
×
Save as Personal and add changes to this tab that will be seen only by you. Learn more ›
×
You can save this tab as Personal to edit and correct it or add notes. All changes will be seen only by you. Learn more »
launch autoscroll
font size
0
reset
how to read this tab
guitar tuner
edit
Autoscroll
slow
fast
+/-
esc
set tempo
stop
I made two intros,
'cause the #2 it's the first I made, and then I listened better and I made #1, for my
the #1 Is the real intro

[Intro]

#1 Real Intro

e|---------------------------------------------------------------------------|
B|---------------------------------------------------------------------------|
G|5---4---2------4---2---0----5--4---4---2-------5---4---2------4---2---0----|
D|-----------0b2--------------------------------------------0b2--------------|
A|---------------------------------------------------------------------------|
E|5---3---1--1---3---1---1---5---3---3---1-------5---3---1--1---3---1---1----|


e|---------------------------------------------------------------------------|
B|---------------------------------------------------------------------------|
G|-5--4---4---2--------------------------------------------------------------|
D|----------------0----------------------------------------------------------|
A|--------------------3------------------------------------------------------|
E|5---3---3---1---1---1------------------------------------------------------|


#2, it's the same that #1, only this is without bass

e|---------------------------------------------------------------------------|
B|1-0-------0-------1-0-0-------1-0-------0-------1-0-0----------------------|
G|----2-------2p0---------2---------2-------2p0---------2--------------------|
D|------0b2---------------------------0b2-----------------0------------------|
A|0----------------0------------0----------------0----------3----------------|
E|---------------------------------------------------------------------------|


[Verse] 

After intro, Van play this, Am, G and F

          Am              G               F
e|-------3p0-----------------------------------------------------------------|
B|-----1-----1-------------3----------3---------3----------------------------|
G|---2----------2--------0---0------2---------2-----0------------------------|
D|---------------------0----------3---------3--------------------------------|
A|-0---------------------------------------------------3-2-0-----------------|
E|--------------------3---------1---------1----------------------------------|

                                                                                    X2
          Am              G               F
e|-------3p0--------------------------0--------------------------------------|
B|-----1-----1-------------3-------------------------------------------------|
G|---2----------2--------0---0------2----------------------------------------|
D|---------------------0----------3------------------------------------------|
A|---------------------------------------------------------------------------|
E|--------------------3---------1--------------------------------------------|


Am             G                F
 Let me get my zipper up and my boots on
Am           G              F
 No one will know what's gone on
Am                   G                       F
 Except the conscious eyes that followed you around the room all night
Am          G                  F
 If only she could've bitten her tongue

G                           F
 Half the time she's honest with lies
G                              F
 Because the truth's too hard to believe


Repeat the verse Am, G and F x2


Am              G                  F
 So you let her go now, you let her go
Am                   G                    F
 She's holding your arm as she greets all your friends
Am                      G                     F
 The lights come back on and the dreaded walk home in the rain
Am               G              F
 You'll never hijack these eyes again

G                           F
 Half the time she's honest with lies
G                             F
 Because the truth's too hard to believe


Repeat Am, G and F


Before this↓↓↓ Van play a slide up /12345
e|---------------------------------------------------------------------------|
B|---------------------------------------------------------------------------|
G|5---4---2------4---2---0----5--4---4---2-------5---4---2------4---2---0----|
D|-----------0b2--------------------------------------------0b2--------------|
A|---------------------------------------------------------------------------|
E|5---3---1--1---3---1---1---5---3---3---1-------5---3---1--1---3---1---1----|


e|---------------------------------------------------------------------------|
B|---------------------------------------------------------------------------|
G|-5--4---4---2--------------------------------------------------------------|
D|---------------------------------------------------------------------------|
A|---------------------------------------------------------------------------|
E|5---3---3---1--------------------------------------------------------------|

Am                            G                         F
 You leave my party with your left-handed cigarette and you look awful cold
Am                       G                         F
 I'd love to hate you but your smell's still on my jeans
Am                     G                      F
 I'm standing in this wreck cause of your smile

You leave my body, yeah, you leave my body
Am                G                      F
 I love your voice but I hate when you speak


Repeat Am, G and F till the end.



************************************

| p  Pull-off
| b  Bend

************************************
Suggest correction
Creating personal tab
Creating personal tab
You can edit any tab online and save it as your Personal.

You can edit, replace or remove any tab part or add personal notes – all changes will be seen only by you.

Personal tabs can be accessed anytime from any device, even offline.
Learn more »
comments
print report bad tab
3 comments total.
0 reply
Iest123 532 Jul 31, 2016 03:03 PM

Nice chord sheet bud.

guest
You may want to rate the tab now too:
select rating
Wanna post a correction for this tab? Suggest correction