Oops, an error
Loading. Please wait.

Bite Down Salvador tab

version 2
version 2

Whole song

  • Both guitars are tabbed, the tabbed part for guita... Show more
1,933 views 24 this week
9 commentsread comments
1 2 3 4 5
x 14
add to favorites
×
Save as Personal and add changes to this tab that will be seen only by you. Learn more ›
×
You can save this tab as Personal to edit and correct it or add notes. All changes will be seen only by you. Learn more »
launch autoscroll
font size
0
reset
how to read this tab
guitar tuner
edit
Autoscroll
slow
fast
+/-
esc
set tempo
stop
About this tab version
Both guitars are tabbed, the tabbed part for guitar 1 is much more accurate than that of the previous version. The other one is actually just a chord sheet with "tabbed" arpeggios. Was this info helpful? Yes No
Bite Down Salvador - Catfish And the Bottlemen

https://www.facebook.com/catfishandthebottlemen/posts/240278466051001

Guitar 1 - Ryan McCann (Capo 6th)
Guitar 2 - Billy Bibby


[Intro]

[Guitar 1] (Finger-picked)

e|----------------------------------------------------------------------------3----------------------|
B|--1--0------------------1-0-0----1--0------------------1-0-0------------------3-------3------------|
G|--2--0----2-2/4-4-2p0---2-0-0-2--2--0----2-2/4-4-2p0---2-0-0-2----------2---------0-----0-----2----|
D|----------3-3/5-5-3-----------3----------3-3/5-5-3-----------3-3------------------------------3----|
A|--0-------------------0----------0-------------------0-----------3----0---0------------------------|
E|-----3----1-1/3-3-1-------3-3-1-----3----1-1/3-3-1-------3-3-1-1-1--------------3---3---3/1-1---1--|

e|--------------3-----------------1--|
B|------1---------3-------3----------|
G|--2---2---2---------0-----0-----2--|
D|--3-----------------------------3--|
A|--------0---0----------------------|
E|----1-------------3---3---3/1-1----|

(After cymbals come in)

[Guitar 1] (Finger-picked)

e|------------------------------------------------------------------------------------|
B|--1---1--1-0---0----0----------------------1---1--1-0---0----0----------------------|
G|--2---2--2-0---0----0-2---2---2-2---2---2--2---2--2-0---0----0-2---2---2-2---2---2--|
D|----------------------3---3---3-3---3---3----------------------3---3---3-3---3---3--|
A|--0-0--0-----------------------------------0-0--0-----------------------------------|
E|-----------3-3----3---1-1---1---1-1---1-------------3-3----3---1-1---1---1-1---1----|


[Guitar 2]

e|------------------------------------------------------------------------------------------------------|
B|----16--16------14--14----------------------------16--16------14--14---14-16--16-14-------------------|
G|--15--15--15--13--13--13------------------------15--15--15--13--13--13-------------15-13-15-13-15-13--|
D|--------------------------13--16-15-13-16-15-13-------------------------------------------------------|
A|------------------------------------------------------------------------------------------------------|
E|------------------------------------------------------------------------------------------------------|



[Verse 1]

[Guitar 1]

   Let me get my...
e|-------------------------------------------|
B|--1---1--1-0---0----0----------------------|
G|--2---2--2-0---0----0-2---2---2-2---2---2--|
D|----------------------3---3---3-3---3---3--|
A|--0-0--0-----------------------------------|
E|-----------3-3----3---1-1---1---1-1---1----|

   No one will know...
e|-------------------------------------------|
B|--1---1--1-0---0----0----------------------|
G|--2---2--2-0---0----0-2---2---2-2---2---2--|
D|----------------------3---3---3-3---3---3--|
A|--0-0--0-----------------------------------|
E|-----------3-3----3---1-1---1---1-1---1----|

   Except the conscious...
e|-------------------------------------------|
B|--1---1--1-0---0----0----------------------|
G|--2---2--2-0---0----0-2---2---2-2---2---2--|
D|----------------------3---3---3-3---3---3--|
A|--0-0--0-----------------------------------|
E|-----------3-3----3---1-1---1---1-1---1----|

   If only she could...
e|-------------------------------------------|
B|--1---1--1-0---0----0----------------------|
G|--2---2--2-0---0----0-2---2---2-2---2---2--|
D|----------------------3---3---3-3---3---3--|
A|--0-0--0-----------------------------------|
E|-----------3-3----3---1-1---1---1-1---1----|


[Guitar 2]

e|----------------------------------------------------------------------------------------------|
B|----16--16------15--15-----------------------------16--16-----14--14--------------------------|
G|--15--15--15--13--13--13-------------------------15--15--15--13-13-13-------------------------|
D|--------------------------13--11h13-13-11h13-13------------------------13--16-15-13-16-15-13--|
A|----------------------------------------------------------------------------------------------|
E|----------------------------------------------------------------------------------------------|

e|------------------------------------------------------------------------------------------------------|
B|----16--16------14--14----------------------------16--16------14--14---14-16--16-14-------------------|
G|--15--15--15--13--13--13------------------------15--15--15--13--13--13-------------15-13-15-13-15-13--|
D|-------------------------13--11h13-13-11h13-13--------------------------------------------------------|
A|------------------------------------------------------------------------------------------------------|
E|------------------------------------------------------------------------------------------------------|



[Chorus]

[Guitar 1] (Still fingerpicked)
    
      Half the time she's honest with lies...
e|--------------------------------------------------------------------------|
B|--0---0---0-0---0---0---------------------------0---0---0-0---0---0-------|
G|--0---0---0-0---0---0----2---2---2-2---2---2----0---0---0-0---0---0----2--|
D|-------------------------3---3---3-3---3---3---------------------------3--|
A|--------------------------------------------------------------------------|
E|--3-3---3---3-3---3---3--1-0---1---1-0---1---1--3-3---3---3-3---3---3--1--|


[Guitar 2]

e|----------------------------------------------------------------------------|
B|----------------------------------------------------------------------------|
G|----------------------------------------------------------------------------|
D|--15--15-15--15-15--16-15--13h15-13h15h16-15-13-15-15--15-15--15-15--15-16--|
A|----------------------------------------------------------------------------|
E|----------------------------------------------------------------------------|



[Post Chorus]

[Guitar 1]

e|-------------------------------------------------3-----------------1----------------|
B|--1---1--1-0---0----0----------------------1---1--1-0---0----0----------------------|
G|--2---2--2-0---0----0-2---2---2-2---2---2--2---2--2-0---0----0-2---2---2-2---2---2--|
D|----------------------3---3---3-3---3---3----------------------3---3---3-3---3---3--|
A|--0-0--0-----------------------------------0-0--0-----------------------------------|
E|-----------3-3----3---1-1---1---1-1---1-------------3-3----3---1-1---1---1-1---1----|


[Guitar 2]

e|-------------------------------------------------------------------------------------------------------|
B|----16--16------14--14-----------------------------16--16------14--14----------------------------------|
G|--15--15--15--13--13--13-------------------------15--15--15--13--13--13--------------------------------|
D|--------------------------13--11h13-13-11h13-13--------------------------13--16-15-13-16-15-13--11-13--|
A|----------------------------------------------------------------------------------------------13-------|
E|-------------------------------------------------------------------------------------------------------|


[Verse 2]

[Guitar 1]

    So you let her go...
e|-------------------------------------------|
B|--1---1--1-0---0----0----------------------|
G|--2---2--2-0---0----0-2---2---2-2---2---2--|
D|----------------------3---3---3-3---3---3--|
A|--0-0--0-----------------------------------|
E|-----------3-3----3---1-1---1---1-1---1----|

   She's holding your arm...
e|-------------------------------------------|
B|--1---1--1-0---0----0----------------------|
G|--2---2--2-0---0----0-2---2---2-2---2---2--|
D|----------------------3---3---3-3---3---3--|
A|--0-0--0-----------------------------------|
E|-----------3-3----3---1-1---1---1-1---1----|

   The lights come back on...
e|-------------------------------------------|
B|--1---1--1-0---0----0----------------------|
G|--2---2--2-0---0----0-2---2---2-2---2---2--|
D|----------------------3---3---3-3---3---3--|
A|--0-0--0-----------------------------------|
E|-----------3-3----3---1-1---1---1-1---1----|

   You'll never hijack...
e|-------------------------------------------|
B|--1---1--1-0---0----0----------------------|
G|--2---2--2-0---0----0-2---2---2-2---2---2--|
D|----------------------3---3---3-3---3---3--|
A|--0-0--0-----------------------------------|
E|-----------3-3----3---1-1---1---1-1---1----|


[Guitar 2]

e|----------------------------------------------------------------------------------------------------|
B|----16--16------14--14---------------------------------16--16------14--14--14-16--16-14-------------|
G|--15--15--15--13--13--13-----------------------------15--15--15--13--13--13------------15-13-15-13--|
D|--------------------------13--16-15-13-16-15--11-13-------------------------------------------------|
A|--------------------------------------------13------------------------------------------------------|
E|----------------------------------------------------------------------------------------------------|

e|------------------------------------------------------------------------------------------------------|
B|----16--16------14--14-----------------------------16--16------14--14--14-16--16-14-------------------|
G|--15--15--15--13--13--13-------------------------15--15--15--13--13--13------------15-13-15-13-15-13--|
D|--------------------------13--16-15-13-16-15-13-------------------------------------------------------|
A|------------------------------------------------------------------------------------------------------|
E|------------------------------------------------------------------------------------------------------|



[Chorus 2]

[Guitar 1]

   Half the time she's honest with lies...
e|--------------------------------------------------------------------------|
B|--0---0---0-0---0---0---------------------------0---0---0-0---0---0-------|
G|--0---0---0-0---0---0----2---2---2-2---2---2----0---0---0-0---0---0----2--|
D|-------------------------3---3---3-3---3---3---------------------------3--|
A|--------------------------------------------------------------------------|
E|--3-3---3---3-3---3---3--1-0---1---1-0---1---1--3-3---3---3-3---3---3--1--|


[Guitar 2]

e|----------------------------------------------------------------------------|
B|----------------------------------------------------------------------------|
G|----------------------------------------------------------------------------|
D|--15--15-15--15-15--16-15--13h15h16-13h16-15-13-15--15-15--15-15--15-15-16--|
A|----------------------------------------------------------------------------|
E|----------------------------------------------------------------------------|



[Solo 1]

[Guitar 1] (Distortion)

e|------|
B|------|
G|------|
D|---3--|
A|------|
E|--1---|

e|--0-0-0-0--3-3-3-3--0-0-0-0-0-0-0-0-0-0-0-0-0-0-0-0--|
B|--1-1-1-1--0-0-0-0--1-1-1-1-1-1-1-1-1-1-1-1-1-1-1-1--|
G|--2-2-2-2--0-0-0-0--2-2-2-2-2-2-2-2-2-2-2-2-2-2-2-2--|
D|--2-2-2-2--0-0-0-0--3-3-3-3-3-3-3-3-3-3-3-3-3-3-3-3--| x4
A|--0-0-0-0--2-2-2-2--3-3-3-3-3-3-3-3-3-3-3-3-3-3-3-3--|
E|--x-x-x-x--3-3-3-3--1-1-1-1-1-1-1-1-1-1-1-1-1-1-1-1--|

e|--0-0-0-0-0-0-0-0-3-3-3-3-3-3-3-3-0-0-0-0-0-0-0-0-0-0-0-0-0-0-0-0--|
B|--1-1-1-1-1-1-1-1-0-0-0-0-0-0-0-0-1-1-1-1-1-1-1-1-1-1-1-1-1-1-1-1--|
G|--2-2-2-2-2-2-2-2-0-0-0-0-0-0-0-0-2-2-2-2-2-2-2-2-2-2-2-2-2-2-2-2--|
D|--2-2-2-2-2-2-2-2-0-0-0-0-0-0-0-0-3-3-3-3-3-3-3-3-3-3-3-3-3-3-3-3--| x4
A|--0-0-0-0-0-0-0-0-2-2-2-2-2-2-2-2-3-3-3-3-3-3-3-3-3-3-3-3-3-3-3-3--|
E|--x-x-x-x-x-x-x-x-3-3-3-3-3-3-3-3-1-1-1-1-1-1-1-1-1-1-1-1-1-1-1-1--|

e|--0----3----0-0-0-0-0-0-0-0-0-0-0-0-0-0-0-0--|
B|--1----0----1-1-1-1-1-1-1-1-1-1-1-1-1-1-1-1--|
G|--2----0----2-2-2-2-2-2-2-2-2-2-2-2-2-2-2-2--|
D|--2----0----3-3-3-3-3-3-3-3-3-3-3-3-3-3-3-3--| x2
A|--0----2----3-3-3-3-3-3-3-3-3-3-3-3-3-3-3-3--|
E|--x----3----1-1-1-1-1-1-1-1-1-1-1-1-1-1-1-1--|

e|--0-0-0-0-0-0-0-0-3-3-3-3-3-3-3-3-0-0-0-0-0-0-0-0-0-0-0-0-0-0-0-0--|
B|--1-1-1-1-1-1-1-1-0-0-0-0-0-0-0-0-1-1-1-1-1-1-1-1-1-1-1-1-1-1-1-1--|
G|--2-2-2-2-2-2-2-2-0-0-0-0-0-0-0-0-2-2-2-2-2-2-2-2-2-2-2-2-2-2-2-2--|
D|--2-2-2-2-2-2-2-2-0-0-0-0-0-0-0-0-3-3-3-3-3-3-3-3-3-3-3-3-3-3-3-3--|
A|--0-0-0-0-0-0-0-0-2-2-2-2-2-2-2-2-3-3-3-3-3-3-3-3-3-3-3-3-3-3-3-3--|
E|--x-x-x-x-x-x-x-x-3-3-3-3-3-3-3-3-1-1-1-1-1-1-1-1-1-1-1-1-1-1-1-1--|

e|--0-0-0-0-0-0-0-0-3-3-3-3-3-3-3-3-0----|
B|--1-1-1-1-1-1-1-1-0-0-0-0-0-0-0-0-1----|
G|--2-2-2-2-2-2-2-2-0-0-0-0-0-0-0-0-2----|
D|--2-2-2-2-2-2-2-2-0-0-0-0-0-0-0-0-3----|
A|--0-0-0-0-0-0-0-0-2-2-2-2-2-2-2-2-3----|
E|--x-x-x-x-x-x-x-x-3-3-3-3-3-3-3-3-1/5--|


[Guitar 2] (Distortion)

e|---------------------------------------------------------------------|
B|----16--16----15--15-------------------------------------------------|
G|--15--15----13--13---------------------------------------------------|
D|--------------------13-16-15-13-16-15-13-16-15-13-16-15-13-16-15-13--|
A|---------------------------------------------------------------------|
E|---------------------------------------------------------------------|

e|-----------------------------------------------------------------------|
B|----16--16----14--14---------------------------------------------------|
G|--15--15----13--13-----------------------------------------------------|
D|----------------------13-16-15-13-16-15-13-16-15-13-16-15-13-11/13-13--|
A|-----------------------------------------------------------------------|
E|-----------------------------------------------------------------------|

e|--------------------------------------------|
B|----16--16----14--14--16--16-14-------------|
G|--15--15----13--13-------------15-13-15-13--|
D|--------------------------------------------|
A|--------------------------------------------|
E|--------------------------------------------|

e|---------------------------------------------------------------------|
B|----16--16----15--15-------------------------------------------------|
G|--15--15----13--13---------------------------------------------------|
D|--------------------13-16-15-13-16-15-13-16-15-13-16-15-13-16-15-13--|
A|---------------------------------------------------------------------|
E|---------------------------------------------------------------------|

e|-----------------------------------------------------------------------------------------------------------|
B|-------------------------------------------------------------------------------------------------------14--|
G|-----------------------------------------------------------------------------------------------------------|
D|--11-13-11-13-13-13--11-13-11-13-13-13--16p15p13h16p15p13h16p15p13h16p15p13h16p15p13h16p15p13h16p15p13-----|
A|-----------------------------------------------------------------------------------------------------------|
E|-----------------------------------------------------------------------------------------------------------|

e|-----------------------------------------------------------------------------------------------------------|
B|--16--16-14--14--16-14--16-14--16-14-16-16-14--16-14--16--16-14--14-16-16-16-16-14--14-16-16-14-14---------|
G|-----------15--15-----15-----15--------------15-----15---------15-----------------15-----------15-15-13-15-|
D|-----------------------------------------------------------------------------------------------------------|
A|-----------------------------------------------------------------------------------------------------------|
E|-----------------------------------------------------------------------------------------------------------|

e|-----------------------------------------------------------------------------------------------------|
B|-----------------------------------------------------------------------------------------------------|
G|-----------------------------------------------------------------------------------------------------|
D|16p15p13h16p15p13h16p15p13h16p15p13h16p15p13h16p15p13h16p15p13h16p15p13h16p15p13h16p15p13h16p15p13h16|
A|-----------------------------------------------------------------------------------------------------|
E|-----------------------------------------------------------------------------------------------------|

e|--------------------------------------------------------------|
B|--------------------------------------------------------------|
G|--------------------------------------------------------------|
D|p15p13h16p15p13h16p15p13-11-13-11-13-11-13-13-11-13-11-13-13--|
A|--------------------------------------------------------------|
E|--------------------------------------------------------------|


e|---------------------------------------------------------------|
B|--16----14-----------------------------------------------------|
G|--15----13-----------------------------------------------------|
D|--------------13-16-15-13-16-15-13-16-15-13-16-15-13-16-15-13--|
A|---------------------------------------------------------------|
E|---------------------------------------------------------------|

e|--------------------------------------------------------------------------------------------------------|
B|--16----14----------------------------------------------------------------------------------------------|
G|--15----13----------------------------------------------------------------------------------------------|
D|--------------13-16-15-13-16-15-13-16-15-13-16-15-13-16--13--11-13-11-13-13-13-13-11-13-11-13-13-13-13--|
A|-------------------------------------------------------16-----------------------------------------------|
E|--------------------------------------------------------------------------------------------------------|

e|-------------------------------------------------------------------|
B|--16-16-16-14--14--14-16-14--14-16--16-16-16-16---14-14--14----16--|
G|-------------15--15--------15-------------------13-13--13----------|
D|-------------------------------------------------------------------|
A|-------------------------------------------------------------------|
E|-------------------------------------------------------------------|



[Post Solo]

[Guitar 1] (Clean and fingerpicked)

e|----------------------------------------------------------------|
B|--1--0------------------1-0-0----1--0------------------1-0-0----|
G|--2--0----2-2/4-4-2p0---2-0-0-2--2--0----2-2/4-4-2p0---2-0-0-2--|
D|----------3-3/5-5-3-----------3----------3-3/5-5-3-----------3--|
A|--0-------------------0----------0-------------------0----------|
E|-----3----1-1/3-3-1-------3-3-1-----3----1-1/3-3-1-------3-3-1--|



[Verse 3]

[Guitar 1]

   You leave my party...
e|----3--------------------------------------|
B|--1---1--1-0---0----0-----1---1-1---1---1--|
G|--2---2--2-0---0----0-2---2---2-2---2---2--|
D|----------------------3---3---3-3---3---3--|
A|--0-0--0-----------------------------------|
E|-----------3-3----3---1-1---1---1-1---1----|

   I'd love to hate you...
e|----3--------------------------------------|
B|--1---1--1-0---0--0-0-1-------1-----1------|
G|--2---2--2-0---0--0-0-2---2---2-2---2---2--|
D|----------------------3---3---3-3---3---3--|
A|--0-0--0-----2----2------------------------|
E|-----------3-3----3---1-1---1---1-1---1----|

   I'm standing in this wreck...
e|----3--------------------|
B|--1---1--1-0---0----0----|
G|--2---2--2-0---0----0-2--|
D|-----------0-0-0--0---3--|
A|--0-0--0---2-2----2------|
E|-----------3-3----3-3-1--|

    I love your voice...
e|-------------------------|
B|--1--------0-------------|
G|--2--------0----------2--|
D|----------------------3--|
A|--0----------------------|
E|-----------3----------1--|



[Solo 2]

[Guitar 1] (Distorted)

e|--0----3----0-0-0-0-0-0-0-0-0-0-0-0-0-0-0-0--|
B|--1----0----1-1-1-1-1-1-1-1-1-1-1-1-1-1-1-1--|
G|--2----0----2-2-2-2-2-2-2-2-2-2-2-2-2-2-2-2--|
D|--2----0----3-3-3-3-3-3-3-3-3-3-3-3-3-3-3-3--| x2
A|--0----2----3-3-3-3-3-3-3-3-3-3-3-3-3-3-3-3--|
E|--x----3----1-1-1-1-1-1-1-1-1-1-1-1-1-1-1-1--|

e|--0-0-0-0-0-0-0-0-3-3-3-3-3-3-3-3-0-0-0-0-0-0-0-0-0-0-0-0-0-0-0-0--|
B|--1-1-1-1-1-1-1-1-0-0-0-0-0-0-0-0-1-1-1-1-1-1-1-1-1-1-1-1-1-1-1-1--|
G|--2-2-2-2-2-2-2-2-0-0-0-0-0-0-0-0-2-2-2-2-2-2-2-2-2-2-2-2-2-2-2-2--|
D|--2-2-2-2-2-2-2-2-0-0-0-0-0-0-0-0-3-3-3-3-3-3-3-3-3-3-3-3-3-3-3-3--| x12
A|--0-0-0-0-0-0-0-0-2-2-2-2-2-2-2-2-3-3-3-3-3-3-3-3-3-3-3-3-3-3-3-3--|
E|--x-x-x-x-x-x-x-x-3-3-3-3-3-3-3-3-1-1-1-1-1-1-1-1-1-1-1-1-1-1-1-1--|


[Guitar 2] (Distorted)

e|------------------------------------------------------------|
B|--16----14--------------------------------------------------|
G|--15----13--------------------------------------------------|
D|--------------16-15-13-16-15-13-16-15-13-16-15-13-16-15-13--| x2
A|------------------------------------------------------------|
E|------------------------------------------------------------|

e|---------------------------------------------------------------------------------------------|
B|---------------------------------------------------------------------------------------------|
G|---------------------------------------------------------------------------------------------|
D|--11-13-11-13-13-13-13-11-13-11-13-13-13-13-11-13-13-13-16-15-13-16-15-13-16-15-13-16-15-13--|
A|---------------------------------------------------------------------------------------------|
E|---------------------------------------------------------------------------------------------|

e|---------------------------------------------------------------------------------------------------|
B|------------------------------------------------------------------16-16-14--14-16-16-16-14--16-16--|
G|--------------------------------------------------------------------------15--------------15-------|
D|-16p15p13h16p15p13h16p15p13h16p15p13h16p15p13h16p15p13h16p15p13-16---------------------------------|
A|---------------------------------------------------------------------------------------------------|
E|---------------------------------------------------------------------------------------------------|

e|-----------------------------------------------------------------------------------------------------------|
B|----16-14-16-16-16-16-16-16p14-16-14-16-16\14-------------16-----16-14-16br-14-16-14--14----------16-14--14|
G|--15----------------------------------------15-13-15-15-15--13-15-------------------15--15-13-15-------15--|
D|------------------------------------------------------------------------------------------------15---------|
A|-----------------------------------------------------------------------------------------------------------|
E|-----------------------------------------------------------------------------------------------------------|

e|---------------------------------------------------------------------------------------|
B|---------------------------------------------------------------------------------------|
G|--15-13-15-13-13h15p13-13h15p13-13h15p13-13h15p13-13h15p13-13h15p13-13h15p13-13h15p13--|
D|---------------------------------------------------------------------------------------|
A|---------------------------------------------------------------------------------------|
E|---------------------------------------------------------------------------------------|

e|-----------------------------------------------------------------------------------------------------------|
B|------------------------------------------------------------------------------------------------16-16-14---|
G|-13h15p13h15p13h15p13h15p13h15p13h15p13h15p13h15p13h15p13h15p13h15p13h15p13h15p13h15p13h15p13h15--------15-|
D|-----------------------------------------------------------------------------------------------------------|
A|-----------------------------------------------------------------------------------------------------------|
E|-----------------------------------------------------------------------------------------------------------|

e|-----------------14/18-18-18-18-18-14h18p16-14h18p16-14h18p16-14h18p16-14h18p16-14h18p16-14h18p16-14h18p16-|
B|-14-16-14-16--16-------------------------------------------------------------------------------------------|
G|-----------------------------------------------------------------------------------------------------------|
D|-----------------------------------------------------------------------------------------------------------|
A|-----------------------------------------------------------------------------------------------------------|
E|-----------------------------------------------------------------------------------------------------------|

e|-14h18p16-14h18p16-14h18p16-14h18p16-14-14-14--------------------------------------------------------------|
B|---------------------------------------------16-16-14-16-14--14--14--14-16-14-16-14--14-16-16-16-14--16-14-|
G|-----------------------------------------------------------15--15--15--------------15--------------15------|
D|-----------------------------------------------------------------------------------------------------------|
A|-----------------------------------------------------------------------------------------------------------|
E|-----------------------------------------------------------------------------------------------------------|

e|-----------------------------------------------------------------------------------------------------------|
B|---16-14--16-14--16-14--16---------------------------------------------------------------------------------|
G|-15-----15-----15-----15--13-15-13-15-13-11--11------------------------------------------------------------|
D|-------------------------------------------13--16-15-13-16-15--13-13--11-13-13-11-13-13-13-11-13-11-13-13--|
A|-------------------------------------------------------------16--------------------------------------------|
E|-----------------------------------------------------------------------------------------------------------|

e|-----------------------------------------------------------------------------------------------------------|
B|-----------------------------------------------------------------------------------------------------------|
G|-11-13-13-13-15-16p15p13-16-15-13-16-15-13-16-15-13--16p15p13-16p15p13-11-13-13-11-13-13-13-16-13-13-16-13-|
D|-----------------------------------------------------------------------------------------------------------|
A|-----------------------------------------------------------------------------------------------------------|
E|-----------------------------------------------------------------------------------------------------------|

e|-----------------------------------------------------------------14-14-14-14-18-18-18-18-18-18-18-18-14-14-|
B|-----------------------------------------16-16-14--14-16-16-16-16------------------------------------------|
G|-13-16-13-13-16-16-13-16-13-13-16-13-13----------15--------------------------------------------------------|
D|-----------------------------------------------------------------------------------------------------------|
A|-----------------------------------------------------------------------------------------------------------|
E|-----------------------------------------------------------------------------------------------------------|

e|-14h18p16-14h18p16-14h18p16-14h18p16-14h18p16-14h18p16-14h18p15-14h18p16-14h18p16-14h18p16-14h18p16-14-14--|
B|-----------------------------------------------------------------------------------------------------------|
G|-----------------------------------------------------------------------------------------------------------|
D|-----------------------------------------------------------------------------------------------------------|
A|-----------------------------------------------------------------------------------------------------------|
E|-----------------------------------------------------------------------------------------------------------|

e|-14--------------------------------------------------------------------------------------------------------|
B|---16-16-14-16-14--14--------------------16--16-14--14-16--16-14--14-16--16-14--14-16-14-16-14-16-14-16-14-|
G|-----------------15--15-13-15-13-11---------------15------------15------------15---------------------------|
D|-------------------------------------13--------------------------------------------------------------------|
A|-----------------------------------------------------------------------------------------------------------|
E|-----------------------------------------------------------------------------------------------------------|


Lyrics:

[Verse 1]

Let me get my zipper up and my boots on.
No one will know what's gone on.
Except the conscious eyes that followed you round the room all night.
If only she could have bitten her tongue.

[Chorus]

Half the time she's honest with lies
Because the truth's too hard to believe.

[Verse 2]

So you let her go now you let her go.
She's holding your arm as she greets all your friends.
The lights come back on and the dreaded walk home in the rain.
You'll never hijack these eyes again.

[Verse 3]

You leave my party with your left handed cigarette and you look awful cold.
I'd love to hate you but your smell's still on my jeans.
I'm standing in this wreck 'cos of your smile, you leave my body yeah, you leave my body.
I love your voice but hate when you speak.

            
            
Suggest correction
Creating personal tab
Creating personal tab
You can edit any tab online and save it as your Personal.

You can edit, replace or remove any tab part or add personal notes – all changes will be seen only by you.

Personal tabs can be accessed anytime from any device, even offline.
Learn more »
comments
print report bad tab
9 comments total. Showing first comments.
+1 reply
lewthehunt 21 Oct 26, 2016 04:59 PM

Nice Job Mate! Waited years for this!

guest
You may want to rate the tab now too:
select rating
Wanna post a correction for this tab? Suggest correction