Oops, an error
Loading. Please wait.

Hourglass tab

version 4
version 4

Whole song

4,672 views 33 this week
6 commentsread comments
1 2 3 4 5
x 9
add to favorites
×
Save as Personal and add changes to this tab that will be seen only by you. Learn more ›
×
You can save this tab as Personal to edit and correct it or add notes. All changes will be seen only by you. Learn more »
launch autoscroll
font size
0
reset
how to read this tab
guitar tuner
edit
Autoscroll
slow
fast
+/-
esc
set tempo
stop
Hourglass - Catfish And The Bottlemen
Tabbed by: GW
Tuning:Standard
Capo on 2.
Tab relative to capo.

Great song by CATB! I've tabbed this entire song in a simple way so it's easy to play, 
unlike other versions of this tab.

[Intro/Verse 1]
e|---------------------------------------------------------------------------|
B|---------------------------------------------------------------------------|
G|---------------------------------------------------------------------------|
D|---------------------------------------------------------------------------|
A|---11-11-11-11----9----2-2-4-7----11-11-11-11-----9---2---4---7--7---------|
E|-0--0--------0--0-0-0--0-0-0-0--0--0--------0--0--0-0-0-0-0-0-0--0---------|

e|---------------------------------------------------------------------------|
B|---------------------------------------------------------------------------|
G|---------------------------------------------------------------------------| 
D|---------------------------------------------------------------------------|
A|-11-11-11-11----9----11-11-11-11-----9----11-11-11-11---9---2---4---7------|
E|--0--------0--0-0-0---0--------0---0-0-0---0--------0-0-0-0-0-0-0-0-0------|

e|---------------------------------------------------------------------------|
B|---------------------------------------------------------------------------|
G|---------------------------------------------------------------------------|
D|---------------------------------------------------------------------------|
A|-7-7-7-9-9-9---9-11---9-9-9---9--12-11-9-11-7------------------------------|
E|-0-0-0-0---0-0----0---0---0-0-----0--0-0--0-0------------------------------|

[Chorus]
e|---------------------------------------------------------------------------|
B|---------------------------------------------------------------------------|
G|---------------------------------------------------------------------------|
D|---------------------------------------------------------------------------|
A|-4-4-2-4-7-11-14-14-14-14-12-11----4-4-4-4-2-4-7-14-14-14-14-12-11---------|
E|-0-0-0-0-0--0--0--0--0--0--0--0----0-0-0-0-0-0-0--0--0--0--0--0--0---------|

e|---------------------------------------------------------------------------|
B|---------------------------------------------------------------------------|
G|---------------------------------------------------------------------------|
D|-------11-9-6-4-4-11-9-6-4-4-11-9-6-4-4-6-4-4-6-4-4-6~~--------------------|
A|-14-14---------------------------------------------------------------------|
E|--0--0--0-0-0-0-0--0-0-0-0-0--0-0-0-0-0-0-0-0-0-0-0-0----------------------|

e|---------------------------------------------------------------------------|
B|---------------------------------------------------------------------------|
G|---------------------------------------------------------------------------|
D|-2-4-6-9---2-4-6-9-6---2-4-6-9---2-4-6-9-6---0-2/4-5~----------------------|
A|---------------------------------------------------------------------------|
E|-0-0-0-0---0-0-0-0-0---0-0-0-0---0-0-0-0-0---------------------------------|

[Final verse]
e|---------------------------------------------------------------------------|
B|---------------------------------------------------------------------------|
G|---------------------------------------------------------------------------|
D|---------------------------------------------------------------------------|
A|---11-11-11-11----9---2---4---7-7------11-11-11-11-----9---2---4---7--7----|
E|-0--0--------0--0-0-0-0-0-0-0-0-0----0-----------0--0--0-0-0-0-0-0-0--0----|

e|---------------------------------------------------------------------------|
B|---------------------------------------------------------------------------|
G|---------------------------------------------------------------------------|
D|---------------------------------------------------------------------------|
A|---11-11-11-11----9---11-11-11-11----9---11-11-11-11----9----2-4-7~--------|
E|----0--------0--0-0-0--0--------0--0-0-0--0--------0--0-0-0--0-0-0---------|



************************************

| ~  Vibrato
| /  Slide up

************************************

            
            
Suggest correction
Creating personal tab
Creating personal tab
You can edit any tab online and save it as your Personal.

You can edit, replace or remove any tab part or add personal notes – all changes will be seen only by you.

Personal tabs can be accessed anytime from any device, even offline.
Learn more »
comments
print report bad tab
6 comments total. Showing first comments.
0 reply
irhagzy 1,297 Aug 27, 2015 05:55 AM

Tab incomplete. Better and more complete tabs have already been submitted for this song. Also it is clearly incomplete and not helpful for any more than the first half a minute of the song

0 reply
irhagzy 1,297 Aug 27, 2015 05:57 AM

I'm not saying this because I have a version of this tab up, but this is simply incomplete. It is useful for no more than the first 30 seconds of the song. Better and more complete tabs have already been made. All this does is show a slightly greater amount of detail in the intro which can be worked out or overpassed easily.

guest
You may want to rate the tab now too:
select rating
Wanna post a correction for this tab? Suggest correction