Oops, an error
Loading. Please wait.

I Will Never Let You Down chords

version 2
version 2

Whole song

319 views 15 this week
no commentswrite comment
1 2 3 4 5
1 last vote to show rating
add to favorites
×
Save as Personal and add changes to this tab that will be seen only by you. Learn more ›
×
You can save this tab as Personal to edit and correct it or add notes. All changes will be seen only by you. Learn more »
launch autoscroll
font size
0
reset
transpose
0
reset
simplify chords
display chords
guitar tuner
edit
Autoscroll
slow
fast
+/-
esc
set tempo
stop
Strumming
There is no strumming pattern for this song yet. and get +5 IQ
-------------------------------------------------------------------------------
          I WILL NEVER LET YOU DOWN (cover)- Catfish and The Bottlemen 
-------------------------------------------------------------------------------
Tabbed by: Callum Jarvie
E-mail: callum.jarvie@hotmal.co.uk
Tuning:EADGBe

[Intro and main part throughout song]
e|---------------------------------------------------------------------------|
B|---------------------------------------------------------------------------|
G|---------7-------------7-8h-7----------------------------------------------|
D|---8----------8--------------------------7----------------------8----------|
A|-----------------------------------8-----------8---------10-----------10---|
E|---------------------------------------------------------------------------|

There are basically three chords through the song

e|---------------------------------------------------------------------------|
B|---------------------------------------------------------------------------|
G|-------7-------------------------------------------------------------------|
D|-------8------------7------------8-----------------------------------------|
A|--------------------8------------10----------------------------------------|
E|---------------------------------------------------------------------------|
        D/A#         A/F          Bb/G

[Verse]
D/A#                      A/F   Bb/G
Tell me, baby, what we're gonna do
D/A#                      A/F   Bb/G
I'll make it easy, got a lot to lose
D/A#                      A/F   Bb/G
Watch the sunlight coming through
D/A#                      A/F   Bb/G
Open the window, let it shine on you

[Pre Chorus]
D/A#
'Cause I've been sick and working all week
A/F                      Bb/G
And I've been doing just fine 
D/A#
You've been tired of watching me
A/F                      Bb/G
Forgot to have a good time
D/A#
You can't take it all these faces
A/F                      Bb/G
Never keeping it real
D/A#
I know exactly how you feel
A/F                      Bb/G

[Chorus]
D/A#
When you say you've had enough
A/F
And you might just give it up
Bb/G
Oh, oh
D/A#
I will never let you down
D/A#
When you're feeling low on love
A/F
I'll be what you dreaming of
Bb/G
Oh, oh
D/A#
I will never let you down

[Verse]
D/A               A/F     Bb/G
There's a million ways to go
D/A               A/F     Bb/G
Don't be embarrassed if you lose control
D/A             A/F     Bb/G
On the rooftop, now you know
D/A                         A/F     Bb/G
Your body's frozen and you lost your soul

[Pre Chorus]
D/A#
'Cause I've been sick and working all week
A/F                      Bb/G
And I've been doing just fine 
D/A#
You've been tired of watching me
A/F                      Bb/G
Forgot to have a good time
D/A#
You can't take it all these faces
A/F                      Bb/G
Never keeping it real
D/A#
I know exactly how you feel
A/F                      Bb/G

[Chorus]
D/A#
When you say you've had enough
A/F
And you might just give it up
Bb/G
Oh, oh
D/A#
I will never let you down
D/A#
When you're feeling low on love
A/F
I'll be what you dreaming of
Bb/G
Oh, oh
D/A#
I will never let you down

[Break]
Lady
I hear me tonight
I can't get you
Out of my mind
I'm in love
For the first time
And I know that it's true
I can tell by the look in your 

[Pre Chorus]
D/A#
'Cause I've been sick and working all week
A/F                      Bb/G
And I've been doing just fine 
D/A#
You've been tired of watching me
A/F                      Bb/G
Forgot to have a good time
D/A#
You can't take it all these faces
A/F                      Bb/G
Never keeping it real
D/A#
I know exactly how you feel
A/F                      Bb/G

[Chorus]
D/A#
When you say you've had enough
A/F
And you might just give it up
Bb/G
Oh, oh
D/A#
I will never let you down
D/A#
When you're feeling low on love
A/F
I'll be what you dreaming of
Bb/G
Oh, oh
D/A#
I will never let you down

[Chorus] 
When you say you've had enough
And you might just give it up
and you're feeling low on love
When you're feeling low on love

believe me baby
i aint goanna let you down (i promise you) 

            
            
Suggest correction
Creating personal tab
Creating personal tab
You can edit any tab online and save it as your Personal.

You can edit, replace or remove any tab part or add personal notes – all changes will be seen only by you.

Personal tabs can be accessed anytime from any device, even offline.
Learn more »
Give kudos to tab author, rate the tab!
1 2 3 4 5
comments
print report bad tab
guest
You may want to rate the tab now too:
select rating
Wanna post a correction for this tab? Suggest correction