Oops, an error
Loading. Please wait.
We have an official Kathleen tab made by UG professional guitarists. Check out the tab »
×

Kathleen bass

version 3
version 3

Whole song

  • Link to original song: https://www.youtube.com/wat... Show more

Interactive

85 views 3 this week
no commentswrite comment
1 2 3 4 5
3 more votes to show rating
add to favorites
×
Save as Personal and add changes to this tab that will be seen only by you. Learn more ›
×
You can save this tab as Personal to edit and correct it or add notes. All changes will be seen only by you. Learn more »
launch autoscroll
font size
0
reset
guitar tuner
edit
Autoscroll
slow
fast
+/-
esc
set tempo
stop
Author
Difficulty
About this tab version
Link to original song: https://www.youtube.com/watch?v=xrrcVxnjJO8 This song is in 4/4 time signature and is in standard tuning. It is best to play with a pick if you are playing this at normal speed or if you are trying to play like Benji Blakeway (bassist for Catfish and the Bottlemen), but you do not have to. If you are playing this song live you should turn up a little bit because this song is bass driven. If you get confused on how the chorus goes listen to the vocals because you can hear the slide in the vocals a little bit. It is recommended to use you first and third finger on the fret board for the chorus. Watch out for the ends of the choruses because the first chorus ends differently than the second chorus. For the intro, verse, and outro just follow the rhythm guitar if you are confused because it is the same notes except you play eighth notes. Was this info helpful? Yes No
[Intro]
  1 + 2 + 3 + 4 + 1 + 2 + 3 + 4 + 1 + 2 + 3 + 4 + 1 + 2 + 3 + 4 +
G|---------------|---------------|---------------|---------------|
D|--R---E---S---T|--R---E---S---T|--R---E---S---T|--R---E---S---T|
A|---------------|---------------|---------------|---------------|
E|---------------|---------------|---------------|---------------|

[Verse 1]
  1 + 2 + 3 + 4 + 1 + 2 + 3 + 4 + 1 + 2 + 3 + 4 + 1 + 2 + 3 + 4 +
G|---------------|---------------|---------------|---------------|
D|---------------|---------------|---------------|---------------|
A|7-7-7-7-7-7-7-7|5-5-5-5-5-5-5-5|2-2-2-2-2-2-2-2|0-0-0-0-0-0-0-0|
E|---------------|---------------|---------------|---------------|

  1 + 2 + 3 + 4 + 1 + 2 + 3 + 4 + 1 + 2 + 3 + 4 + 1 + 2 + 3 + 4 +
G|---------------|---------------|---------------|---------------|
D|---------------|---------------|---------------|---------------|
A|7-7-7-7-7-7-7-7|5-5-5-5-5-5-5-5|2-2-2-2-2-2-2-2|0-0-0-0-0-0-0-0|
E|---------------|---------------|---------------|---------------|

  1 + 2 + 3 + 4 + 1 + 2 + 3 + 4 + 1 + 2 + 3 + 4 + 1 + 2 + 3 + 4 +
G|---------------|---------------|---------------|---------------|
D|---------------|---------------|---------------|---------------|
A|7-7-7-7-7-7-7-7|5-5-5-5-5-5-5-5|2-2-2-2-2-2-2-2|0-0-0-0-0-0-0-0|
E|---------------|---------------|---------------|---------------|

  1 + 2 + 3 + 4 + 1 + 2 + 3 + 4 + 1 + 2 + 3 + 4 + 1 + 2 + 3 + 4 +
G|---------------|---------------|---------------|---------------|
D|---------------|---------------|---------------|---------------|
A|7-7-7-7-7-7-7-7|5-5-5-5-5-5-5-5|2-2-2-2-2-2-2-2|0-0-0-0-0-0-0-0|
E|---------------|---------------|---------------|---------------|

[Pre Chorus]
  1 + 2 + 3 + 4 + 1 + 2 + 3 + 4 + 1 + 2 + 3 + 4 + 1 + 2 + 3 + 4 +
G|---------------|---------------|---------------|---------------|
D|---------------|---------------|---------------|---------------|
A|---------------|5-5-5-5-5-5-5-5|---------------|2-2-2-2-0-0-0-0|
E|3-3-3-3-3-3-3-3|---------------|5-5-5-5-5-5-5-5|---------------|

  1 + 2 + 3 + 4 + 1 + 2 + 3 + 4 + 1 + 2 + 3 + 4 + 1 + 2 + 3 + 4 +
G|---------------|---------------|---------------|---------------|
D|---------------|---------------|---------------|7---7---7---7--|
A|---------------|5-5-5-5-5-5-5-5|---------------|---------------|
E|3-3-3-3-3-3-3-3|---------------|5-5-5-5-5-5-5-5|--5---5---5---5|

[Chorus]
  1 + 2 + 3 + 4 + 1 + 2 + 3 + 4 + 1 + 2 + 3 + 4 + 1 + 2 + 3 + 4 +
G|---------------|---------------|---------------|---------------|
D|---------------|---------------|----7----------|---------------|
A|2-2-2-2-2-2-2-2|--5-------7----|--9-----9-7\5--|--5-------7----|
E|---------------|3---3---5---5--|7-------------7|3---3---5---5--|

  1 + 2 + 3 + 4 + 1 + 2 + 3 + 4 + 1 + 2 + 3 + 4 + 1 + 2 + 3 + 4 +
G|---------------|---------------|---------------|---------------|
D|----7----------|---------------|----7----------|---------------|
A|--9-----9-7\5-7|--5-------7----|--9-----9-7\5--|--5-------7----|
E|7--------------|3---3---5---5--|7-------------7|3---3---5---5--|

  1 + 2 + 3 + 4 + 1 + 2 + 3 + 4 + 1 + 2 + 3 + 4 + 1 + 2 + 3 + 4 +
G|---------------|---------------|---------------|---------------|
D|---------------|---------------|---------------|---------------|
A|2-2-2-2-2-2-2-2|--5-------7----|2-2-2-2-2-2-2-2|--5-------7----|
E|---------------|3---3---5---5--|---------------|3---3---5---5--|

  1 + 2 + 3 + 4 + 1 + 2 + 3 + 4 + 1 + 2 + 3 + 4 + 1 + 2 + 3 + 4 +
G|---------------|---------------|---------------|---------------|
D|---------------|---------------|----7----------|---------------|
A|2-2-2-2-2-2-2-2|--5-------7----|--9-----9-7\5--|---------------|
E|---------------|3---3---5---5--|7-------------7|3-3-3-3-5------|

[Verse 2]
  1 + 2 + 3 + 4 + 1 + 2 + 3 + 4 + 1 + 2 + 3 + 4 + 1 + 2 + 3 + 4 +
G|---------------|---------------|---------------|---------------|
D|---------------|---------------|---------------|---------------|
A|7-7-7-7-7-7-7-7|5-5-5-5-5-5-5-5|2-2-2-2-2-2-2-2|0-0-0-0-0-0-0-0|
E|---------------|---------------|---------------|---------------|

  1 + 2 + 3 + 4 + 1 + 2 + 3 + 4 + 1 + 2 + 3 + 4 + 1 + 2 + 3 + 4 +
G|---------------|---------------|---------------|---------------|
D|---------------|---------------|---------------|---------------|
A|7-7-7-7-7-7-7-7|5-5-5-5-5-5-5-5|2-2-2-2-2-2-2-2|0-0-0-0-0-0-0-0|
E|---------------|---------------|---------------|---------------|

  1 + 2 + 3 + 4 + 1 + 2 + 3 + 4 + 1 + 2 + 3 + 4 + 1 + 2 + 3 + 4 +
G|---------------|---------------|---------------|---------------|
D|---------------|---------------|---------------|---------------|
A|7-7-7-7-7-7-7-7|5-5-5-5-5-5-5-5|2-2-2-2-2-2-2-2|0-0-0-0-0-0-0-0|
E|---------------|---------------|---------------|---------------|

  1 + 2 + 3 + 4 + 1 + 2 + 3 + 4 + 1 + 2 + 3 + 4 + 1 + 2 + 3 + 4 +
G|---------------|---------------|---------------|---------------|
D|---------------|---------------|---------------|---------------|
A|7-7-7-7-7-7-7-7|5-5-5-5-5-5-5-5|2-2-2-2-2-2-2-2|0-0-0-0-0-0-0-0|
E|---------------|---------------|---------------|---------------|  

[Pre Chorus]
  1 + 2 + 3 + 4 + 1 + 2 + 3 + 4 + 1 + 2 + 3 + 4 + 1 + 2 + 3 + 4 +
G|---------------|---------------|---------------|---------------|
D|---------------|---------------|---------------|---------------|
A|---------------|5-5-5-5-5-5-5-5|---------------|2-2-2-2-0-0-0-0|
E|3-3-3-3-3-3-3-3|---------------|5-5-5-5-5-5-5-5|---------------|

  1 + 2 + 3 + 4 + 1 + 2 + 3 + 4 + 1 + 2 + 3 + 4 + 1 + 2 + 3 + 4 +
G|---------------|---------------|---------------|---------------|
D|---------------|---------------|---------------|7---7---7---7--|
A|---------------|5-5-5-5-5-5-5-5|---------------|---------------|
E|3-3-3-3-3-3-3-3|---------------|5-5-5-5-5-5-5-5|--5---5---5---5|

[Chorus]
  1 + 2 + 3 + 4 + 1 + 2 + 3 + 4 + 1 + 2 + 3 + 4 + 1 + 2 + 3 + 4 +
G|---------------|---------------|---------------|---------------|
D|---------------|---------------|----7----------|---------------|
A|2-2-2-2-2-2-2-2|--5-------7----|--9-----9-7\5--|--5-------7----|
E|---------------|3---3---5---5--|7-------------7|3---3---5---5--|

  1 + 2 + 3 + 4 + 1 + 2 + 3 + 4 + 1 + 2 + 3 + 4 + 1 + 2 + 3 + 4 +
G|---------------|---------------|---------------|---------------|
D|----7----------|---------------|----7----------|---------------|
A|--9-----9-7\5-7|--5-------7----|--9-----9-7\5--|--5-------7----|
E|7--------------|3---3---5---5--|7-------------7|3---3---5---5--|

  1 + 2 + 3 + 4 + 1 + 2 + 3 + 4 + 1 + 2 + 3 + 4 + 1 + 2 + 3 + 4 +
G|---------------|---------------|---------------|---------------|
D|---------------|---------------|---------------|---------------|
A|2-2-2-2-2-2-2-2|--5-------7----|2-2-2-2-2-2-2-2|--5-------7----|
E|---------------|3---3---5---5--|---------------|3---3---5---5--|

  1 + 2 + 3 + 4 + 1 + 2 + 3 + 4 + 1 + 2 + 3 + 4 + 1 + 2 + 3 + 4 +
G|---------------|---------------|---------------|---------------|
D|---------------|---------------|----7----------|---------------|
A|2-2-2-2-2-2-2-2|--5-------7----|--9-----9-7\5--|--5-------7----|
E|---------------|3---3---5---5--|7-------------7|3---3---5---5--|

[Outro]
  1 + 2 + 3 + 4 + 1 + 2 + 3 + 4 + 1 + 2 + 3 + 4 + 1 + 2 + 3 + 4 +
G|---------------|---------------|---------------|---------------|
D|---------------|---------------|---------------|---------------|
A|5-5-5---5-5-5--|2-2-2---0-0-0--|5-5-5---5-5-5--|2-2-2---0-0-0--|
E|---------------|---------------|---------------|---------------|

  1 + 2 + 3 + 4 + 1 + 2 + 3 + 4 + 1 + 2 + 3 + 4 + 1 + 2 + 3 + 4 +
G|---------------|---------------|---------------|---------------|
D|---------------|---------------|---------------|---------------|
A|5-5-5---5-5-5-5|2-2-2---0-0-0--|5-5-5---5-5-5--|2-2-2---0-0----|
E|---------------|---------------|---------------|---------------|



************************************

| \  Slide down
 

************************************

            
            
Suggest correction
Creating personal tab
Creating personal tab
You can edit any tab online and save it as your Personal.

You can edit, replace or remove any tab part or add personal notes – all changes will be seen only by you.

Personal tabs can be accessed anytime from any device, even offline.
Learn more »
Give kudos to tab author, rate the tab!
1 2 3 4 5
comments
print report bad tab
guest
You may want to rate the tab now too:
select rating
Wanna post a correction for this tab? Suggest correction