Oops, an error
Loading. Please wait.

Outside Live tab

version 3
version 3

Whole song

355 views 6 this week
no commentswrite comment
1 2 3 4 5
1 last vote to show rating
add to favorites
×
Save as Personal and add changes to this tab that will be seen only by you. Learn more ›
×
You can save this tab as Personal to edit and correct it or add notes. All changes will be seen only by you. Learn more »
launch autoscroll
font size
0
reset
how to read this tab
guitar tuner
edit
Autoscroll
slow
fast
+/-
esc
set tempo
stop
Author
Difficulty
Catfish And The Bottlemen - Outside (Live)

Guitar 1 - Ryan McCann (Capo 2nd)
Guitar 2 - Jonathan Bond

[Verse 1]

[Guitar 1] (Light Distortion)
e|--------------------|
B|-------1----1----0--|
G|--2----2----0----0--|x4
D|--3----2----2----0--|
A|--3----0----3----2--|
E|--1---------3----3--|


[Pre-chorus]

[Guitar 1] (More distortion, strumming pattern DDDDU)
P.M-----      ---      ----      ----|
e|-------------------------------------------|
B|------1-1-1-----0-0-0----------------------|
G|--2-2-2-2-2-----0-0-0-----0-0-0-----2-2-2--|x3
D|--2-2-2-2-2-0-0-0-0-0-0-0-0-0-0-3-3-3-3-3--|
A|--0-0-0-0-0-2-2-2-2-2-x-x-x-x-x-3-3-3-3-3--|
E|------------3-3-3-3-3-2-2-2-2-2-1-1-1-1-1--|

(Transitions to quick downward strums on last 2 chords)
e|--0-0-0-0-3-3-3-3-3--------------------------------|
B|--1-1-1-1-0-0-0-0-0-0-0-0-0-0-0-0-1-1-1-1-1-1-1-1--|
G|--2-2-2-2-0-0-0-0-0-0-0-0-0-0-0-0-2-2-2-2-2-2-2-2--|
D|--2-2-2-2-0-0-0-0-0-0-0-0-0-0-0-0-3-3-3-3-3-3-3-3--|
A|--0-0-0-0-2-2-2-2-x-x-x-x-x-x-x-x-3-3-3-3-3-3-3-3--|
E|----------3-3-3-3-2-2-2-2-2-2-2-2-1-1-1-1-1-1-1-1--|

[Guitar 2] (Distorted, same strumming pattern as G1)
P.M----     ----       ----      ----|
e|------------------------------------------|
B|-----3-3-3--------------------------------|
G|-4-4-4-4-4--------------------------------|x3
D|-4-4-4-4-4-4-4-4-4-4-4-4-4-4-4-5-5-5-5-5--|
A|-2-2-2-2-2-2-2-2-2-2-2-2-2-2-2-5-5-5-5-5--|
E|-----------5-5-5-5-5-4-4-4-4-4-3-3-3-3-3--|

e|-------------------------------------------------------------------|
B|--3-3-3-3----------------------------------------------------------|
G|--4-4-4-4---------13-13-13-13-13-13-13-13-12-12-12-12-12-12-12-12--|
D|--4-4-4-4-4-4-4-4-x--x--x--x--x--x--x--x--x--x--x--x--x--x--x--x---|
A|--2-2-2-2-2-2-2-2-11-11-11-11-11-11-11-11-10-10-10-10-10-10-10-10--|
E|----------5-5-5-5--------------------------------------------------|


[Chorus]

[Guitar 1] (Distorted)
e|--0-0-0-0-0-0-0-0-0-0-0-0-0-0-0-0----------------------------------|
B|--1-1-1-1-1-1-1-1-1-1-1-1-1-1-1-1-1-1-1-1-1-1-1-1-1-1-1-1-1-1-1-1--|
G|--0-0-0-0-0-0-0-0-0-0-0-0-0-0-0-0-2-2-2-2-2-2-2-2-2-2-2-2-2-2-2-2--|x2
D|--2-2-2-2-2-2-2-2-2-2-2-2-2-2-2-2-3-3-3-3-3-3-3-3-3-3-3-3-3-3-3-3--|
A|--3-3-3-3-3-3-3-3-3-3-3-3-3-3-3-3-3-3-3-3-3-3-3-3-3-3-3-3-3-3-3-3--|
E|--3-3-3-3-3-3-3-3-3-3-3-3-3-3-3-3-1-1-1-1-1-1-1-1-1-1-1-1-1-1-1-1--|

[Guitar 2] (Distorted)
e|---------------------------------------------------------------------------------------------------------|
B|-3-3-5-5-3-3-5-5-3-3-5-5-3-3-5-5-------------------------------------------------------------------------|
G|-2-2-2-2-2-2-2-2-2-2-2-2-2-2-2-2-0-0-0-0-2-2-2-2-4-4-4-4-7-7-7-7-9-9-9-9-11-11-11-11-11-11-11-11-11-11br-|x2
D|-0-0-0-0-0-0-0-0-0-0-0-0-0-0-0-0-------------------------------------------------------------------------|
A|---------------------------------------------------------------------------------------------------------|
E|---------------------------------------------------------------------------------------------------------|


[Post-chorus]

[Guitar 1] (Distorted)
e|--0-0-0-0-3-3-3-3-----------------0-0-0-0-3-3-3-3------------|
B|--1-1-1-1-0-0-0-0-0-0-0-0-1-1-1-1-1-1-1-1-0-0-0-0-0-0-0-0-1--|
G|--2-2-2-2-0-0-0-0-0-0-0-0-2-2-2-2-2-2-2-2-0-0-0-0-0-0-0-0-2--|
D|--2-2-2-2-0-0-0-0-0-0-0-0-3-3-3-3-2-2-2-2-0-0-0-0-0-0-0-0-3--|
A|--0-0-0-0-2-2-2-2-x-x-x-x-3-3-3-3-0-0-0-0-2-2-2-2-x-x-x-x-3--|
E|----------3-3-3-3-2-2-2-2-1-1-1-1---------3-3-3-3-2-2-2-2-1--|

[Guitar 2] (Distorted)
e|------------------4-4-4-4-3-3-3-3-----------------4-4-4-4-3--|
B|--3-3-3-3-2-2-2-2-4-4-4-4-3-3-3-3-3-3-3-3-2-2-2-2-4-4-4-4-3--|
G|--4-4-4-4-2-2-2-2-4-4-4-4-4-4-4-4-4-4-4-4-2-2-2-2-4-4-4-4-4--|
D|--4-4-4-4-2-2-2-2-4-4-4-4-5-5-5-5-4-4-4-4-2-2-2-2-4-4-4-4-5--|
A|--2-2-2-2-0-0-0-0-6-6-6-6-5-5-5-5-2-2-2-2-0-0-0-0-6-6-6-6-5--|
E|------------------4-4-4-4-3-3-3-3-----------------4-4-4-4-3--|


[Verse 2]

[Guitar 1] (Light Distortion)
e|--------------------|
B|-------1----1----0--|
G|--2----2----0----0--|x6
D|--3----2----2----0--|
A|--3----0----3----2--|
E|--1---------3----3--|

[Guitar 2] (Light Distortion, Slight Delay)
e|---------------------|     e|---------------------------------------------|
B|---------------------|     B|---------------------------------------------|
G|--4----7----11----6--| x4  G|--4----7----11-12-11-6----4----7----11----6--|
D|---------------------|     D|---------------------------------------------|
A|---------------------|     A|---------------------------------------------|
E|--3----7----10----5--|     E|--3----7----10-------5----3----7----10----5--|


[Pre-chorus 2]

[Guitar 1] (More distortion, strumming pattern DDDDU)
P.M-----      ---      ----      ----|
e|-------------------------------------------|
B|------1-1-1-----0-0-0----------------------|
G|--2-2-2-2-2-----0-0-0-----0-0-0-----2-2-2--|
D|--2-2-2-2-2-0-0-0-0-0-0-0-0-0-0-3-3-3-3-3--|
A|--0-0-0-0-0-2-2-2-2-2-x-x-x-x-x-3-3-3-3-3--|
E|------------3-3-3-3-3-2-2-2-2-2-1-1-1-1-1--|

(Transitions to quick downward strums on last 2 chords)
e|--0-0-0-0-3-3-3-3-3--------------------------------|
B|--1-1-1-1-0-0-0-0-0-0-0-0-0-0-0-0-1-1-1-1-1-1-1-1--|
G|--2-2-2-2-0-0-0-0-0-0-0-0-0-0-0-0-2-2-2-2-2-2-2-2--|
D|--2-2-2-2-0-0-0-0-0-0-0-0-0-0-0-0-3-3-3-3-3-3-3-3--|
A|--0-0-0-0-2-2-2-2-x-x-x-x-x-x-x-x-3-3-3-3-3-3-3-3--|
E|----------3-3-3-3-2-2-2-2-2-2-2-2-1-1-1-1-1-1-1-1--|

[Guitar 2] (Distorted, same strumming pattern as G1)
P.M----     ----       ----      ----|
e|------------------------------------------|
B|-----3-3-3--------------------------------|
G|-4-4-4-4-4--------------------------------|x3
D|-4-4-4-4-4-4-4-4-4-4-4-4-4-4-4-5-5-5-5-5--|
A|-2-2-2-2-2-2-2-2-2-2-2-2-2-2-2-5-5-5-5-5--|
E|-----------5-5-5-5-5-4-4-4-4-4-3-3-3-3-3--|

e|-------------------------------------------------------------------|
B|--3-3-3-3----------------------------------------------------------|
G|--4-4-4-4---------13-13-13-13-13-13-13-13-12-12-12-12-12-12-12-12--|
D|--4-4-4-4-4-4-4-4-x--x--x--x--x--x--x--x--x--x--x--x--x--x--x--x---|
A|--2-2-2-2-2-2-2-2-11-11-11-11-11-11-11-11-10-10-10-10-10-10-10-10--|
E|----------5-5-5-5--------------------------------------------------|


[Post-chorus 2]

[Guitar 1] (Distorted)
e|--0-0-0-0-3-3-3-3-----------------0-0-0-0-3-3-3-3------------------|
B|--1-1-1-1-0-0-0-0-0-0-0-0-1-1-1-1-1-1-1-1-0-0-0-0-0-0-0-0-1-1-1-1--|
G|--2-2-2-2-0-0-0-0-0-0-0-0-2-2-2-2-2-2-2-2-0-0-0-0-0-0-0-0-2-2-2-2--|
D|--2-2-2-2-0-0-0-0-0-0-0-0-3-3-3-3-2-2-2-2-0-0-0-0-0-0-0-0-3-3-3-3--|
A|--0-0-0-0-2-2-2-2-x-x-x-x-3-3-3-3-0-0-0-0-2-2-2-2-x-x-x-x-3-3-3-3--|
E|----------3-3-3-3-2-2-2-2-1-1-1-1---------3-3-3-3-2-2-2-2-1-1-1-1--|

[Guitar 2] (Distorted)
e|------------------4-4-4-4-3-3-3-3-----------------4-4-4-4-3-3-3-3--|
B|--3-3-3-3-2-2-2-2-4-4-4-4-3-3-3-3-3-3-3-3-2-2-2-2-4-4-4-4-3-3-3-3--|
G|--4-4-4-4-2-2-2-2-4-4-4-4-4-4-4-4-4-4-4-4-2-2-2-2-4-4-4-4-4-4-4-4--|
D|--4-4-4-4-2-2-2-2-4-4-4-4-5-5-5-5-4-4-4-4-2-2-2-2-4-4-4-4-5-5-5-5--|
A|--2-2-2-2-0-0-0-0-6-6-6-6-5-5-5-5-2-2-2-2-0-0-0-0-6-6-6-6-5-5-5-5--|
E|------------------4-4-4-4-3-3-3-3-----------------4-4-4-4-3-3-3-3--|


[Pre-chorus 3 (Interlude)]

[Guitar 1] (Distortion, comes in towards the end of the 4th bar)
e|-----------------------------------|
B|--0-0-0-0-0-0-0-0-1-1-1-1-1-1-1-1--|
G|--0-0-0-0-0-0-0-0-2-2-2-2-2-2-2-2--|
D|--0-0-0-0-0-0-0-0-3-3-3-3-3-3-3-3--|
A|--x-x-x-x-x-x-x-x-3-3-3-3-3-3-3-3--|
E|--2-2-2-2-2-2-2-2-1-1-1-1-1-1-1-1--|

[Guitar 2] (Distortion, pluck the individual notes with volume on zero then rotate volume knob up/down for
ambient effect. Octaves quickly strummed. Comes in on 3rd bar.)
e|----19~----17~----16~----15~-----19~----17~---------------------------------------------------|
B|----------------------------------------------------------------------------------------------|
G|---------------------------------------------13-13-13-13-13-13-13-13-12-12-12-12-12-12-12-12--|
D|---------------------------------------------x--x--x--x--x--x--x--x--x--x--x--x--x--x--x--x---|
A|---------------------------------------------11-11-11-11-11-11-11-11-10-10-10-10-10-10-10-10--|
E|----------------------------------------------------------------------------------------------|


[Solo/Outro]

[Guitar 1] (Distortion)
e|--0--0---3-3-3-x-3-3-3-----------------0--0---3-3-3-x-3-3-3-----------------------------|
B|--1--1---0-0-0-x-0-0-0-0--0--1-1--1-1--1--1---0-0-0-x-0-0-0-0--0------------------------|
G|--2--2---0-0-0-x-0-0-0-0--0--2-2--2-2--2--2---0-0-0-x-0-0-0-0--0------------------------|
D|--2--2---0-0-0-x-0-0-0-0--0--3-3--3-3--2--2---0-0-0-x-0-0-0-0--0------------------------|
A|--0--0---2-2-2-x-2-2-2-x--x--3-3--3-3--0--0---2-2-2-x-2-2-2-x--x------------------------|
E|---------3-3-3-x-3-3-3-2--2--1-1--1-1---------3-3-3-x-3-3-3-2--2--1/22(tremolo picked)--|

e|--0--0---3-3-3-x-3-3-3-----------------0--0---3-3-3-x-3-3-3-----------x-----x-----x-----x-----x------|
B|--1--1---0-0-0-x-0-0-0-0--0--1-1--1-1--1--1---0-0-0-x-0-0-0-0--0--1-1-x-1-1-x-1-1-x-1-1-x-1-1-x-1-1--|
G|--2--2---0-0-0-x-0-0-0-0--0--2-2--2-2--2--2---0-0-0-x-0-0-0-0--0--2-2-x-2-2-x-2-2-x-2-2-x-2-2-x-2-2--|
D|--2--2---0-0-0-x-0-0-0-0--0--3-3--3-3--2--2---0-0-0-x-0-0-0-0--0--3-3-x-3-3-x-3-3-x-3-3-x-3-3-x-3-3--|
A|--0--0---2-2-2-x-2-2-2-x--x--3-3--3-3--0--0---2-2-2-x-2-2-2-x--x--3-3-x-3-3-x-3-3-x-3-3-x-3-3-x-3-3--|
E|---------3-3-3-x-3-3-3-2--2--1-1--1-1---------3-3-3-x-3-3-3-2--2--1-1-x-1-1-x-1-1-x-1-1-x-1-1-x-1-1--|

e|------------|
B|--1-1-1-1---|
G|--2-2-2-2---|
D|--2-2-2-2---|
A|--0-0-0-0---|
E|------------|

[Guitar 2] (Distorted)
e|---------------------------------------------------------------------------------------|
B|-----------------------------12-----15-------------------------------------------------|
G|-----------------------------14b16--17b19-------------------------------------------2--|
D|--7--7---5-5-5-x-5-5-5-4--4---------------7--7---5-5-5-x-5-5-5-4--4------------2h4p2---|
A|--x--x---x-x-x-x-x-x-x-x--x---------------x--x---x-x-x-x-x-x-x-x--x-------2h4p2--------|
E|--7--7---5-5-5-x-5-5-5-4--4---------------7--7---5-5-5-x-5-5-5-4--4--3h5p3-------------|

e|-----------------------------------------------------------------------------------------------------------|
B|-----------------------------12-------------------------------------12----------12----------12-------------|
G|-----------------------------14b16-11-------------------------------14b16-11----14b16-11----14b16-11-------|
D|--7--7---5-5-5-x-5-5-5-4--4--------14b16-7--7---5-5-5-x-5-5-5-4--4--------14b16-------14b16-------14b16----|
A|--x--x---x-x-x-x-x-x-x-x--x--------------x--x---x-x-x-x-x-x-x-x--x-----------------------------------------|
E|--7--7---5-5-5-x-5-5-5-4--4--------------7--7---5-5-5-x-5-5-5-4--4-----------------------------------------|

e|---------------|
B|--13-13-13-13--|
G|--11-11-11-11--|
D|--13-13-13-13--|
A|---------------|
E|---------------|


Song Structure:

[Verse 1]
[Pre-chorus 1]
[Chorus]
[Post-chorus 1]
[Verse 2]
[Pre-chorus 2]
[Chorus]
[Post-chorus 2]
[Pre-chorus 3 (Interlude)]
[Chorus]
[Post-chorus 2]
[Solo/Outro]

Lyrics:

[Verse 1]
We let them knock like crazy
'Cause I'd not seen her in months.
She knew how to save me
For the craic though carried on.
I know I've pushed boundaries sometimes
But she knows she's worse.
I've missed this, I was bound to.

[Pre-chorus 1]
I just came along for the ride,
And I've tried my best to
Keep away from you.
But you've just stepped off of a flight
And now you beg for my company
Cause you know,
I'll give it you all.
Tell your sister to wait.

[Chorus 1]
'Cause there's no-one in the life I knew
That got through to me.
But when you talk about nothing
You tend to lose me.
'Cause there's nothing in the life I knew
That got through to me.
But when you talk about nothing
Yeah that's when you lose me.

[Post-chorus 1]
I used to carry you though town,
You used to smother me in lippy.
Now if we ver get an hour together...

[Verse 2]
We let them talk behind us
'Cause I'd not see her in months
They knew how how find us
For the craic though carried on.
I know I've pushed boundaries at times
But she's just as bad.
I've missed this, I was bound to.

[Pre-chorus 2]
I just came along for the ride,
And I've tried my best to
Keep away from you.
Tell your sister to wait.

[Chorus 2]
'Cause there's no-one in the life I knew
That got through to me.
But when you talk about nothing
You tend to lose me.
'Cause there's nothing in the life I knew
That got through to me.
But when you scream about nothing
Yeah that's when you lose me.

[Post-chorus 2]
I used to carry you though town,
You used to smother me in lippy.
Now if we ever get an hour together
It's like I'm on the Outside.

[Pre-chorus 3/Interlude]
I just came along for the ride,
And I've tried my best to
Keep away from you.
But you've just stepped off of a flight
And now you beg for my company
Cause you know,
I'll give it you all.
Tell your sister to wait.

[Chorus 3]
'Cause there's no-one in the life I knew
That got through to me.
But when you talk about nothing
You tend to lose me.
'Cause there's nothing in the life I knew
That got through to me.
But when you're kicking off at nothing
Yeah that's when you lose me.

[Post-chorus 2]
I used to carry you though town,
You used to smother me in lippy.
Now if we ever get an hour together
You act like you miss me.

************************************

| x   Dead note
| h   Hammer-on
| ~   Vibrato
| b   Bend
| br  Bend release
| PM  Palm mute

 ************************************

            
            
Suggest correction
Creating personal tab
Creating personal tab
You can edit any tab online and save it as your Personal.

You can edit, replace or remove any tab part or add personal notes – all changes will be seen only by you.

Personal tabs can be accessed anytime from any device, even offline.
Learn more »
Give kudos to tab author, rate the tab!
1 2 3 4 5
comments
print report bad tab
guest
You may want to rate the tab now too:
select rating
Wanna post a correction for this tab? Suggest correction