Oops, an error
Loading. Please wait.

Oxygen Bass

559 views 18 this week
no commentswrite comment
1 2 3 4 5
x 4
add to favorites
launch autoscroll
font size
0
reset
guitar tuner
×
Best way to learn
"Oxygen"
Autoscroll
slow
fast
+/-
esc
set tempo
stop
Author
Difficulty
novice
About this tab version
This is the first bass tab for this song, the notes were found using the root notes of this songs chords and it seemed to fit the song quite well. Was this info helpful? Yes No
Oxygen Bass Tab-Catfish and the Bottlemen

Intro
G|---------------------------------------|
D|---------------------------------------|
A|---------------------------------------|
E|-5-5-5-5-5-5-5-5-5-5-5-5-5-5-5-5-------|

Verse 1- Bass comes in at 0:22
G|--------------------------------|-----------------------------------------------|
D|--------------------------------|-----------------------------------------------|
A|--------------------------------|-----------------------------------------------|
E|-5-5-5-5-5-5-5-5-5-5-5-5-5-5-5-5|-3-3-3-3-3-3-3-3-1-1-1-1-1-1-1-1---------------|

Pre-Chorus 0:38
G|------------------|--------------------|
D|------------------|--------------------|
A|------------------|--------------------|
E|-5-5-5-5-0h5-5-5-5|-0h5-5-5-5-0h5-5-5-5|

Chorus 0:46 
G|--------------------------------|-----------------------------------------------|
D|--------------------------------|-3-3-3-3-3-3-3-3-5-5-5-5-5-5-5-5---------------|
A|-3-3-3-3-3-3-3-3-3-3-3-3-3-3-3-3|-----------------------------------------------|
E|--------------------------------|-----------------------------------------------|

Verse 2 1:01
G|--------------------------------|-----------------------------------------------|
D|--------------------------------|-----------------------------------------------|
A|--------------------------------|-----------------------------------------------|
E|-5-5-5-5-5-5-5-5-5-5-5-5-5-5-5-5|-3-3-3-3-3-3-3-3-1-1-1-1-1-1-1-1---------------|

Pre-Chorus 1:17
G|------------------|--------------------|
D|------------------|--------------------|
A|------------------|--------------------|
E|-5-5-5-5-0h5-5-5-5|-0h5-5-5-5-0h5-5-5-5|

Chorus 1:24 
G|--------------------------------|-----------------------------------------------|
D|--------------------------------|3-3-3-3-3-3-3-3-5-5-5-5-5-5-5-5----------------|
A|-3-3-3-3-3-3-3-3-3-3-3-3-3-3-3-3|-----------------------------------------------|
E|--------------------------------|-----------------------------------------------|

G|--------------------------------|-----------------------------------------------|
D|--------------------------------|-3-3-3-3-3-3-3-3-5-5-5-5-5-5-5-5---------------|
A|-3-3-3-3-3-3-3-3-3-3-3-3-3-3-3-3|-----------------------------------------------|
E|--------------------------------|-----------------------------------------------|
 
Solo 1:54
G|--------------------------------|-----------------------------------------------|
D|--------------------------------|-----------------------------------------------|
A|--------------------------------|-----------------------------------------------|
E|-5-5-5-5-5-5-5-5-5-5-5-5-5-5-5-5|-3-3-3-3-3-3-3-3-1-1-1-1-1-1-1-1---------------|

Chorus Bass comes in again at 2:14
That C is played 24 times in eight notes.
G|------------------------------------------------|-------------------------------|
D|------------------------------------------------|3-3-3-3-3-3-3-3-5-5-5-5-5-5-5-5|
A|-3-3-3-3-3-3-3-3-3-3-3-3-3-3-3-3-3-3-3-3-3-3-3-3|-------------------------------|
E|------------------------------------------------|-------------------------------|

G|-----------------2-2-2-2-2-2-2-2|-----------------------------------------------|
D|--------------------------------|-3-3-3-3-3-3-3-3-5-5-5-5-5-5-5-5---------------|
A|-3-3-3-3-3-3-3-3----------------|-----------------------------------------------|
E|--------------------------------|-----------------------------------------------|

Outro 2:40
G|------------------|--------------------|
D|------------------|--------------------|
A|------------------|--------------------|
E|-5-5-5-5-0h5-5-5-5|-0h5-5-5-5-0h5-5-5-5|


******************************************

| h   Hammer-on

******************************************
Suggest correction
comments
print report bad tab
guest
You may want to rate the tab now too:
select rating
Wanna post a correction for this tab? Suggest correction