Oops, an error
Loading. Please wait.

Pacifier bass

version 1
version 1

Whole song

  • This version of the tab uses the same notes that Benji plays during the song.
8,006 views 30 this week
2 commentsread comments
1 2 3 4 5
x 9
add to favorites
×
Save as Personal and add changes to this tab that will be seen only by you. Learn more ›
×
You can save this tab as Personal to edit and correct it or add notes. All changes will be seen only by you. Learn more »
launch autoscroll
font size
0
reset
guitar tuner
edit
Autoscroll
slow
fast
+/-
esc
set tempo
stop
Author
Difficulty
intermediate
Tuning: Standard EADG

[Intro] (x4)
G|---------------------------------------------------------------------------|
D|---------------------------------------------------------------------------|
A|------------------44444444-00000000----------------------------------------|
E|-0000000000000000----------------------------------------------------------|

[Verse] (x4)
G|---------------------------------------------------------------------------|
D|-2-2-2---2-2-2-------------------------------------------------------------|
A|------42------42-4-4-42-0-0-0----------------------------------------------|
E|-----------------------4-----42--------------------------------------------|

(Play This the 3rd Time in every verse)
G|---------------------------------------------------------------------------|
D|-2-2-2--2-2-2---------------424--------------------------------------------|                             
A|------42-----42-4-4-42-0-0-0-----------------------------------------------|
E|----------------------4----------------------------------------------------|

[Bridge]
G|---------------------------------------------------------------------------|
D|---------------------------------------------------------------------------|
A|-4------------67-----------------------------------------------------------|
E|---------------------------------------------------------------------------|

G|---------------------------------------------------------------------------|
D|---------------------------------------------------------------------------|
A|-4------------67-77777777777-----------------------------------------------|
E|---------------------------------------------------------------------------|

[Chorus]
G|---------------------------------------------------------------------------|
D|---------------------------------------------------------------------------|
A|----------------4-4-4-4-2-2-2-2---------------7-7-7-7-2-2-2-2--------------|
E|-5-5-5-5-5-5-5-5---------------5-5-5-5-5-5-5-5-----------------------------|

[Verse] (x4)
G|---------------------------------------------------------------------------|
D|-2-2-2---2-2-2-------------------------------------------------------------|
A|------42------42-4-4-42-0-0-0----------------------------------------------|
E|-----------------------4-----42--------------------------------------------|

(Play This the 3rd Time in every verse)
G|---------------------------------------------------------------------------|
D|-2-2-2--2-2-2---------------424--------------------------------------------|                             
A|------42-----42-4-4-42-0-0-0-----------------------------------------------|
E|----------------------4----------------------------------------------------|

[Bridge]
G|---------------------------------------------------------------------------|
D|---------------------------------------------------------------------------|
A|-4------------67-----------------------------------------------------------|
E|---------------------------------------------------------------------------|

G|---------------------------------------------------------------------------|
D|---------------------------------------------------------------------------|
A|-4------------67-77777777777-----------------------------------------------|
E|---------------------------------------------------------------------------|

[Chorus] (x2)
G|---------------------------------------------------------------------------|
D|---------------------------------------------------------------------------|
A|----------------4-4-4-4-2-2-2-2---------------7-7-7-7-2-2-2-2--------------|
E|-5-5-5-5-5-5-5-5---------------5-5-5-5-5-5-5-5-----------------------------|

[Interlude] (x3)
G|---------------------------------------------------------------------------|
D|---------------------------------------------------------------------------|
A|-44444444444444667777777777777666------------------------------------------|
E|---------------------------------------------------------------------------|

(Play this the 4th time but Crescendo the 7's into the outro) 
G|---------------------------------------------------------------------------|
D|---------------------------------------------------------------------------|
A|-4444444444444466777777777777777-------------------------------------------|
E|---------------------------------------------------------------------------|

[Outro] (x4)
G|---------------------------------------------------------------------------|
D|---------------------------------------------------------------------------|
A|------------------44444444-00000000----------------------------------------|
E|-0000000000000000----------------------------------------------------------|

(Play This 3 Times)
G|---------------------------------------------------------------------------|
D|-2-2-2---2-2-2-------------------------------------------------------------|
A|------42------42-4-4-42-0-0-0----------------------------------------------|
E|-----------------------4-----42--------------------------------------------|

(Play This Once on The Last Line)
G|---------------------------------------------------------------------------|
D|-2-2-2---2-2-2---------------424-------------------------------------------|
A|------42------42-4-4-42-0-0-0----------------------------------------------|
E|-----------------------4--------0------------------------------------------|
Suggest correction
Creating personal tab
Creating personal tab
You can edit any tab online and save it as your Personal.

You can edit, replace or remove any tab part or add personal notes – all changes will be seen only by you.

Personal tabs can be accessed anytime from any device, even offline.
Learn more »
comments
print report bad tab
2 comments total.
0 reply
clintmin 10 Jul 01, 2015 11:48 AM

nice tab mate!!! i have leant the for our band of it!!! keep up yhe good work!!! kissessssssssssssssssssss

0 reply
MasterMicahWH 592 Feb 01, 2016 04:03 PM

You're the first damn bassist on this site i've seen who has a clue(and you my friend have more than just that). I'm gonna work on getting the rest of their music up for bass and eventually guitar if i feel like it but good job anyway. I'm glad i can count on someone else to know what he's doing. If you wanna check out some of my tabs and maybe discover a new favorite then check back on the 3rd of february. I'm gonna have a lot of this, bad suns, and whatever else is underground/non-saturated.

guest
You may want to rate the tab now too:
select rating
Wanna post a correction for this tab? Suggest correction