Oops, an error
Loading. Please wait.
424 views 6 this week
2 commentsread comments
1 2 3 4 5
3 more votes to show rating
add to favorites
×
Save as Personal and add changes to this tab that will be seen only by you. Learn more ›
×
You can save this tab as Personal to edit and correct it or add notes. All changes will be seen only by you. Learn more »
launch autoscroll
font size
0
reset
guitar tuner
edit
Autoscroll
slow
fast
+/-
esc
set tempo
stop
Author
Difficulty
About this tab version
Some bits I couldn't find so I just improvised but I'm certain most of it is how Benji plays it. Was this info helpful? Yes No
[Intro](x2)
G|---------------------------------------------------------------------------|
D|---------------------------------------------------------------------------|
A|--6666666666666-----999999999----------------------------------------------|
E|----------------999-----------999------------------------------------------|

[Verse] (x4)
G|---------------------------------------------------------------------------|
D|---------------------------------------------------------------------------|
A|-66-666-666-666----99-999-999-999------------------------------------------|
E|---------------999----------------999--------------------------------------|

[Pre-Chorus] 
G|---------------------------------------------------------------------------|
D|---------------------------------------------------------------------------|
A|-9\------------------------------------------------------------------------|
E|---------------------------------------------------------------------------| (x1)

G|---------------------------------------------------------------------------|
D|---------------------------------------------------------------------------|
A|-66-666-666-666----99-999-999-999------------------------------------------|
E|---------------999---------------999---------------------------------------| (x2)

[Chorus] (x2)
G|---------------------------------------------------------------------------|
D|---------------------------------------------------------------------------|
A|--222-444-66666666--222-444----------222-444-66666666-222-444-9999---------|
E|----------------------------22222222---------------------------------------|

[Bridge] (x2)
G|---------------------------------------------------------------------------|
D|---------------------------------------------------------------------------|
A|-66-666-666-666----99-999-999-999------------------------------------------|
E|---------------999----------------999--------------------------------------|

[Chorus] (x2)
G|---------------------------------------------------------------------------|
D|---------------------------------------------------------------------------|
A|--222-444-66666666--222-444----------222-444-66666666-222-444-9999---------|
E|----------------------------22222222---------------------------------------|

[Outro] (x2)
G|---------------------------------------------------------------------------|
D|---------------------------------------------------------------------------|
A|--6666666666666-----999999999----------------------------------------------|
E|----------------999------------999-----------------------------------------|



************************************

| \  Slide down

************************************
Suggest correction
Creating personal tab
Creating personal tab
You can edit any tab online and save it as your Personal.

You can edit, replace or remove any tab part or add personal notes – all changes will be seen only by you.

Personal tabs can be accessed anytime from any device, even offline.
Learn more »
Give kudos to tab author, rate the tab!
1 2 3 4 5
comments
print report bad tab
2 comments total.
+2 reply
ceasermekhi 10 Feb 17, 2017 03:49 PM

i have played this tab with the song a couple times now and it sounds like it needs to be a fret down on every note. so 7's would be 6's, 10's would be 9's, 3's would be 2's, 5's would be 4's. i dont know maybe just me but played both ways and sounds better that way to me.

guest
You may want to rate the tab now too:
select rating
Wanna post a correction for this tab? Suggest correction