Oops, an error
Loading. Please wait.

Sidewinder tab

version 1
version 1

Whole song

25,147 views 153 this week
7 commentsread comments
1 2 3 4 5
x 20
add to favorites
×
Save as Personal and add changes to this tab that will be seen only by you. Learn more ›
×
You can save this tab as Personal to edit and correct it or add notes. All changes will be seen only by you. Learn more »
launch autoscroll
font size
0
reset
how to read this tab
guitar tuner
edit
Autoscroll
slow
fast
+/-
esc
set tempo
stop
-------------------------------------------------------------------------------
                    Sidewinder - Catfish and the Bottlemen
-------------------------------------------------------------------------------
Tabbed by: Rory H
E-mail: Rdeh10@googlemail.com

Tuning: EADGBe

*CAPO ON 2*

So, this is my third CFATB tab, and this is a personal favourite off the fantastic debut album, 
'The Balcony' It is all done by ear so will not be 100% but I think it is pretty good, and certainly good 
enough. If there are any improvements or errors, feel free to comment or email me personally, and I'll try 
to fix the tab for a better result! Enjoy!


[Intro]

Clean tone all palm muted w/ some reverb 
e|--------------------------------------------------|
B|--------------------------------------------------|
G|-0-0-0-0-0-0-0-0-0-0-0-0-4-4-4-4-4-4-0-0-0-0-0-0--| (x2)
D|-5-5-5-5-5-5-5-5-5-5-5-5-5-5-5-5-5-5-5-4-4-4-4-4--| 
A|-2-2-2-2-2-0-3-3-3-3-3-0-5-5-5-5-5-5-5-5-5-5-5-5--| - these chords used for intro and verses 
E|-------------0-0-0-0-0-0-3-3-3-3-3-3-5-5-5-5-5-5--| -(Besides first have of second verse)
                                               ^ ^ On the 2nd time, miss these out and start the next part

The Chorus and Bridge parts for the intro use open positions for Em, C, G, and D 
(Same Chords, different shape)

Chorus/post intro:
e|----------------------------------------------------------------------------------------------------------|
B|----------------------------------------------------------------------------------------------------------|
G|-4br------------------------------------------------------------------------------------------------------|
D|---------------------5-5-5-5-5---7-7-7-7-7-5h7-9-9-12-14-12-10-9-9-9-10-9-7-5-5-5-5-5-5-----5h7-7b8r7-5-7-|
A|-------7-7-7-7-7-5h7-----------7--------------------------------------------------------5h7---------------|
E|----------------------------------------------------------------------------------------------------------|
                                              (You may prefer sliding some of these notes)
e|------------------------------------------------------------------------------------------------|
B|------------------------------------------------------------------------------------------------|
G|------------------------------------------------------------------------------------------------|
D|-----5-5-5-5-5-----7-7-7-7-7-5h7-9-9-9-12-14-14--14b16-16br14-12-14-12-10-9-10-9-7-5-7-7b8-5----|
A|-5h7-----------5h7---------------------------------------------------------------------------7--|
E|------------------------------------------------------------------------------------------------|
                             Hold this note and^    ^don't pick this note 

e|----------------------------|
B|----------------------------|
G|----------------------------|
D|-----5h7-7b8r7-5-7--5---5---| 
A|-5h7------------------7---7-| 
E|----------------------------|

Repeat everything played so far another time now 
(When you repeat, dont play the final 4 notes on the line
above [5 7 5 7])
And then:-


[Bridge]

e|--------------------------------------------------------------------------------------------------|
B|--------------------------------------------------------------------------------------------------|
G|--------------------------------------------------------------------------------------------------|
D|-99-9-9-77-7-7-55-5-5-44-4-4-0-0-2b3--b2-0---99-9-9-77-7-7-55-5-5-44-4-4-0-0-0--4h5-7-5-4-0---0-2-|
A|--------------------------------------------------------------------------------------------2---2-|
E|------------------------------------------------------------------------------------------------0-|


[Verse 2]

Clean again with reverb
e|----------------------------------------------------------------------------------------------------------|
B|-5--3------3--5--3---0-0-0-0-0-0-5-5-5-5-5-5-3-3-3-3-3-3-------------0-0-0-0-0-0-5-5-5-5-5-5-3-3-3-3-3-3--|
G|-5--4----4----4--4---0-0-0-0-0-0-5-5-5-5-5-5-4-4-4-4-4-4-------------0-0-0-0-0-0-5-5-5-5-5-5-4-4-4-4-4-4--| 
D|-5--5--5------5--5---2-2-2-2-2-2-5-5-5-5-5-5-5-5-5-5-5-5-4-4-4-4-4-4-2-2-2-2-2-2-5-5-5-5-5-5-5-5-5-5-5-5-4|
A|-3--5------------5---2-2-2-2-2-2-3-3-3-3-3-3-5-5-5-5-5-5-5-5-5-5-5-5-2-2-2-2-2-2-3-3-3-3-3-3-5-5-5-5-5-5-5| 
E|----3------------3---------------------------3-3-3-3-3-3-5-5-5-5-5-5-------------------------3-3-3-3-3-3-5|

Then into this -
e|------------------|
B|------------------|
G|-4b5r4--0h2p0-----|
D|--------------2---|
A|------------------|
E|------------------| 

Now just play the Chorus and Bridge again 1 more time! Finishing on an Em chord, and maybe messing with the
low E-string a little as the song drops out. 

************************************

| /   slide up
| \   slide down
| h   hammer-on
| p   pull-off
| ~   vibrato
| +   harmonic
| x   Mute note
| b   Bend
| pb  Pre-bend
| br  Bend release
| pbr Pre-bend release
| brb Bend release bend

************************************
Suggest correction
Creating personal tab
Creating personal tab
You can edit any tab online and save it as your Personal.

You can edit, replace or remove any tab part or add personal notes – all changes will be seen only by you.

Personal tabs can be accessed anytime from any device, even offline.
Learn more »
comments
print report bad tab
7 comments total. Showing first comments.
0 reply
jakehodges93 10 Apr 19, 2015 03:41 AM

Nice tab, think the fourth chord should have the open G string in like this:

e|--------------|
B|--------------|
G|-0-0-0-0-0-0--|
D|-4-4-4-4-4-4--|
A|-5-5-5-5-5-5--|
E|-5-5-5-5-5-5--|

0 reply
Matty5899 10 Jul 27, 2015 02:33 PM

e|--------------------------------------------------|
B|-0-0-0-0-0-0-1-1-1-1-1-1-1-1-1-1-1-1-3-3-3-3-3-3--|
G|-0-0-0-0-0-0-0-0-0-0-0-0-0-0-0-0-0-0-0-0-0-0-0-0--| (x2)
D|-2-2-2-2-2-2-2-2-2-2-2-2-0-0-0-0-0-0-4-4-4-4-4-4--|
A|-2-2-2-2-2-2-3-3-3-3-3-3-2-2-2-2-2-2-5-5-5-5-5-5--|
E|-0-0-0-0-0-0-0-0-0-0-0-0-3-3-3-3-3-3-5-5-5-5-5-5--|

In my opinion this should be the intro, sounds more accurate. Keep the palm mute.

0 reply
StuWakley 199 Aug 07, 2015 03:51 AM

CHORDS?????

guest
You may want to rate the tab now too:
select rating
Wanna post a correction for this tab? Suggest correction