Oops, an error
Loading. Please wait.

Sidewinder bass

version 2
version 2

Whole song

  • Bass tab for Sidewinder by Catfish and the Bottlem... Show more
280 views 6 this week
no commentswrite comment
1 2 3 4 5
3 more votes to show rating
add to favorites
×
Save as Personal and add changes to this tab that will be seen only by you. Learn more ›
×
You can save this tab as Personal to edit and correct it or add notes. All changes will be seen only by you. Learn more »
launch autoscroll
font size
0
reset
guitar tuner
edit
Autoscroll
slow
fast
+/-
esc
set tempo
stop
About this tab version
Bass tab for Sidewinder by Catfish and the Bottlemen. Tab is not exactly the same as it is played by the band. Tuning is half a step down as it is much easier to play this way, although if you are playing along to the version on YouTube, it will need to be played in standard tuning. Was this info helpful? Yes No
Catfish and the Bottlemen: Sidewinder Bass Tab

Tuned half step down as this enables the song
to be played much easier than standard tuning.

[Intro]
   (0:15) 
Gb|-----------------------------------------------------------------|
Db|-----------------------------------------------------------------|
Ab|------------------6-6-6-6-6-6------1-1-1-1-1-3-------------------|
Eb|----3-3-3-3-3-3----------------------------------1-1-1-1-1-1-----|

   (0:22)
Gb|-----------------------------------------------------------------|
Db|-----------------------------------------------------------------|
Ab|------------------6-6-6-6-6-8-----------------8-8-8--------------|
Eb|----3-3-3-3-3-3-----------------6-6-6-6-6-6-----------6-5--------|

   (0:30)
Gb|-----------------------------------------------------------------|
Db|-----------------------------------------------------------------|
Ab|----------------5/6-6-6-6-6-6---1-1-1-1-1-1---8-8-8-8-8-8--------|
Eb|----3-3-3-3-3----------------------------------------------------|

   (0:37)
Gb|-----------------------------------------------------------------|
Db|-----------------------------------------------------------------|
Ab|------------------6-6-6-6-6-8-----------------8-8-8-8-8-8--------|
Eb|----3-3-3-3-3-3-----------------6-6-6-6-6-6----------------------|
 
[Verse 1]
   (0:45) 
Gb|----------------------------8-7----------------------------------|
Db|------------12-10-8--------------10-8-8-8-10-8-7---------10-8-7--|
Ab|--10-10-10-----------6-6-6------------------------8-8-8----------|
Eb|-----------------------------------------------------------------|

   (0:52)
Gb|-----------------------------8-7---------------------------------|
Db|-----------12-10-8----------------8-8-8-10-8-------------12-10-8-|
Ab|-10-10-10-----------6-6-6-6-------------------0-8-8-8-8----------|
Eb|-----------------------------------------------------------------|

   (1:00)
Gb|----------------------------8-7----------------------------------|
Db|------------12-10-8--------------10-8-8-8-8-10-8---------10-8-7--|
Ab|--10-10-10-----------6-6-6------------------------8-8-8----------|
Eb|-----------------------------------------------------------------|

   (1:07)
Gb|-------------------------------8-7-------------------------------|
Db|---------------12-10----------------8-8-8-10-8-7-----------------|
Ab|--10-10-10-10---------6-6-6-6---------------------8-8-8-8\-------|
Eb|-----------------------------------------------------------------|

[Chorus]
   (1:15) 
Gb|-----------------------------------------------------------------|
Db|-----------------------------------------------------------------|
Ab|------------------6-6-6-6-6-6---1-1-1-1-1-3----------------------|
Eb|----3-3-3-3-3-3-------------------------------1-1-1-1-1-2--------|

   (1:22)
Gb|-----------------------------------------------------------------|
Db|-----------------------------------------------------------------|
Ab|--------------1-3-6-6-6-6-5-3-1-1-1-1-1-3------------------------|
Eb|----3-3-3-3---------------------------------1-1-1-1-1-1----------|

   (1:30)
Gb|-----------------------------------------------------------------|
Db|-----------------------------------------------------------------|
Ab|---/10-10-10-10-10-8-6-6-6-8-6-----------------------------------|
Eb|----------------------------------8-6-6-6-6-6-8---1-1-1-1-1-2----|

   (1:37)
Gb|-----------------------------------------------------------------|
Db|--------------------1-1-1-3-1------------------------------8-----|
Ab|--------------1-3---------------3-1-1-1-1-1-1-/8-8-8-8-8---------|
Eb|----3-3-3-3------------------------------------------------------|

   (1:45)
Gb|-----------------------------------------------------------------|
Db|----------------------------------------------------10-----------|
Ab|---10-10-10-10-10-8-6-6-6-6-6-5h6-8-8-8-8-8-6-8-8--------8-8-9---|
Eb|-----------------------------------------------------------------|

   (1:52)
Gb|-----------------------------------------------------------------|
Db|----------------------------------10---------------------10-8-7--|
Ab|-10-10-10-10-10-8-6-6-6-6-6-6-8--------8-8-8-8-8-8-8-8-----------|
Eb|-----------------------------------------------------------------|

[Verse 2]
   (2:00)
Gb|----------------------------8-7----------------------------------|
Db|------------12-10-8--------------10-8-8-8-10-8-7---------10-8-7--|
Ab|--10-10-10-----------6-6-6------------------------8-8-8----------|
Eb|-----------------------------------------------------------------|

   (2:07)
Gb|-----------------------------------------------------------------|
Db|-----------------------------------------------------7-8---------|
Ab|-----10-10-10-10-10-8-6-6-6-6-6-6-1-1-1-1-1-1-8-8-8--------------|
Eb|-----------------------------------------------------------------|

   (2:15)
Gb|----------------------------8-7----------------------------------|
Db|------------12-10-8--------------10-8-8-8-10-8-7---------10-8-7--|
Ab|--10-10-10-----------6-6-6------------------------8-8-8----------|
Eb|-----------------------------------------------------------------|

   (2:22)
Gb|------------------------------8-7-------------9-10-10\-----------|
Db|------------12-10-8----------------8-8-8-8-8---------------------|
Ab|--10-10-10-----------6-6-6-6-------------------------------------|
Eb|-----------------------------------------------------------------|

[Chorus]
   (2:30)
Gb|-----------------------------------------------------------------|
Db|-----------------------------------------------------------------|
Ab|----------------------6-6-6-6-6-6-1-1-1-1-1-3---------------5----|
Eb|----3---3-3-3-3-3-3-----------------------------1-1-1-1-1--------|

   (2:38)
Gb|-----------------------------------------------------------------|
Db|----------------------------------------1-2-3-3-3-5-3------------|
Ab|--------------3-5-6-6-6-6-5-3-1-1-1-1-------------------5--------|
Eb|----3-3-3-3------------------------------------------------------|

   (2:46)
Gb|-----------------------------------------------------------------|
Db|-----------------------------------------------------------------|
Ab|----------------5/6-6-6-6-5-3-1-1-1-1-3-3-----------3-1----------|
Eb|----3-3-3-3-3-------------------------------1-1-1---------2------|

   (2:53)
Gb|-----------------------------------------------------------------|
Db|------------------------------------------------------10-8-7-----|
Ab|----------------5/6-6-6-8-6-------------------8-8-8--------------|
Eb|----3-3-3-3-3-----------------8-6-6-6-6-6-6----------------------|

[Outro]
   (3:01) 
Gb|-----------------------------------------------------------------|
Db|-----------------------------------------------------------------|
Ab|----10-10-10-10-10-8-6-6-6-6-6-5h6-8-8-6-8-8-6-8-8-6-8-----------|
Eb|---------------------------------------------------------6-5-----|

   (3:08)
Gb|-----------------------------------------------------------------|
Db|----------------------------------------------------10-8-7-------|
Ab|-----------------6-6-6-6-6-6-8-8-8-8-8-8-8-8-8-8------------10~--|
Eb|---3-3-3-3-3-3---------------------------------------------------|


************************************

| ~  Vibrato
| \  Slide down
| /  Slide up

************************************

            
            
Suggest correction
Creating personal tab
Creating personal tab
You can edit any tab online and save it as your Personal.

You can edit, replace or remove any tab part or add personal notes – all changes will be seen only by you.

Personal tabs can be accessed anytime from any device, even offline.
Learn more »
Give kudos to tab author, rate the tab!
1 2 3 4 5
comments
print report bad tab
guest
You may want to rate the tab now too:
select rating
Wanna post a correction for this tab? Suggest correction