Oops, an error
Loading. Please wait.

Soundcheck tab

version 1
version 1

Whole song

14,443 views 126 this week
4 commentsread comments
1 2 3 4 5
x 9
add to favorites
×
Save as Personal and add changes to this tab that will be seen only by you. Learn more ›
×
You can save this tab as Personal to edit and correct it or add notes. All changes will be seen only by you. Learn more »
launch autoscroll
font size
0
reset
how to read this tab
guitar tuner
edit
Autoscroll
slow
fast
+/-
esc
set tempo
stop
Author
-------------------------------------------------------------------------------
                             SOUNDCHECK - Catfish and the Bottlemen
-------------------------------------------------------------------------------

First time creating a tab myself. I couldn't find a proper tab on the internet out there for this song.
Didn't include the solo, there's a tab on here for it already. 
Unsure if it's correct but it sounds pretty close. There aren't any videos of them playing it live to compare

Tuning: Standard


[Verse] (Same the whole time)

   {Guitar 1}
e|---------------------------------------------------------------------------|
B|---------------------------------------------------------------------------|
G|---------------------------------------------------------------------------|
D|---------------------------------------------------------------------------|
A|--------9----7----5-------9----7----5--------------------------------------|
E|-5--5-----------------5------------------5---------------------------------|

   Maybe  I  don't act the way   I  used to 


[Pre-Chorus]

e|---------------------------------------------------------------------------|
B|-------------------3h5p3----------------------3h5p3------------------------|
G|---------------------------------------------------------------------------|
D|----5-----5xxx----------------5----5xxx------------------------------------|
A|----5-----5xxx----------------5----5xxx------------------------------------|
E|----3-----3xxx----------------3----3xxx------------------------------------|

   If only for the sake of it I could chill you out

e|---------------------------------------------------------------------------|
B|---------------------3h5p3-------------------------------------------------|
G|---------------------------------------------------------9-----------------|
D|----5-----5xxx--------------------------7b8r7---5---7/9--------------------|
A|----5-----5xxx-------------------------------------------------------------|
E|----3-----3xxx----------------------7--------------------------------------|
 
 And drive us thru the night to your sister's

e|---------------------------------------------------------------------------|
B|-------------------3h5p3-------------------------3h5p3---------------------|
G|---------------------------------------------------------------------------|
D|----5-----5xxx-------------------5----5xxx---------------------------------|
A|----5-----5xxx-------------------5----5xxx---------------------------------|
E|----3-----3xxx-------------------3----3xxx---------------------------------|

      You can fall asleep with my jack-et  as  a cover

e|---------------------------------------------------------------------------|
B|-------------------3h5p3---------------------------------------------------|
G|---------------------------------------9--------9--------9-------9---------|
D|----5-----5xxx-------------------------9--------9--------9-------9---------|
A|----5-----5xxx--------------------------------------------------------5----|
E|----3-----3xxx----------------------7-------9--------10-------12-----------|

     And wake up just to join me to smoke


[Chorus] (Listen to find strumming patterns)

e|---------------------------------------------------------------------------|
B|---------------------------------------------------------------------------|
G|-----7---------------12------------11--------------------------------------|
D|-----7---------------12------------11--------------------------------------|
A|-----5---------------10------------9---------------------------------------|
E|---------------------------------------------------------------------------|
              I wanted everything at once

e|---------------------------------------------------------------------------|
B|---------------------------------------------------------------------------|
G|-----7---------------12------------11--------------------------------------|
D|-----7---------------12------------11--------------------------------------|
A|-----5---------------10------------9---------------------------------------|
E|---------------------------------------------------------------------------|
             Until you blew me out my mind

e|---------------------------------------------------------------------------|
B|---------------------------------------------------------------------------|
G|-----7---------------12------------11--------------------------------------|
D|-----7---------------12------------11--------------------------------------|
A|-----5---------------10------------9---------------------------------------|
E|---------------------------------------------------------------------------|
                 Now I don't       need nothing

e|---------------------------------------------------------------------------|
B|---------------------------------------------------------------------------|
G|-----7---------------16------------14--------------------------------------|
D|-----7---------------16------------14--------------------------------------|
A|-----5---------------14------------12--------------------------------------|
E|---------------------------------------------------------------------------|


[Bridge] - nothing



************************************

| x  Dead note
| h  Hammer-on
| p  Pull-off
| r  Release
| b  Bend
| /  Slide up

************************************

            
            
Suggest correction
Creating personal tab
Creating personal tab
You can edit any tab online and save it as your Personal.

You can edit, replace or remove any tab part or add personal notes – all changes will be seen only by you.

Personal tabs can be accessed anytime from any device, even offline.
Learn more »
comments
print report bad tab
4 comments total. Showing first comments.
+1 reply
cappuccino2521 10 Jun 20, 2016 11:55 AM

what do the xxxx mean?+

+1 reply
jeno7749 11 Oct 20, 2016 09:13 PM

wheres the solo??

guest
You may want to rate the tab now too:
select rating
Wanna post a correction for this tab? Suggest correction