Oops, an error
Loading. Please wait.

Soundcheck Tab

version 2
version 2

Whole song

781 views 30 this week
5 commentsread comments
1 2 3 4 5
x 4
add to favorites
launch autoscroll
font size
0
reset
how to read this tab
guitar tuner
Autoscroll
slow
fast
+/-
esc
set tempo
stop
Help us to improve Ultimate-Guitar.com Take our survey!
×
Author
Difficulty
Tuning
intermediate
D A D G B E
About this tab version
Tab for the Rhythm Guitar. Was this info helpful? Yes No
Was learning the rhythm guitar part to this song for my band and noticed there wasn't
really any tab on it.

Here's my best crack at it.

Enjoy!

[Intro]

e|---------------------------------------------------------------------------|
B|---------------------------------------------------------------------------|
G|---------------------------------------------------------------------------|
D|---------------------------------------------------------------------------|
A|--0--0--9--9--7--7--5--5--2--2--9--9--7--7--5--5--2--2---------------------|
D|--0--0--0--0--0--0--0--0--0--0--0--0--0--0--0--0--0--0---------------------|

    Maybe I     don't act   the   way   I     used  to...

[Pre Chorus]

e|---------------------------------------------------------------------------|
B|---------------------------------------------------------------------------|
G|---------------------------------------------------------------------------|
D|---------------------------------------------------------------------------|
A|--5-----5---7---5---5/7---5-------5-----5---7---5---5/7---5----------------|
D|--5-----5---5---5-----------------5-----5---5---5--------------------------|

   If    only for the sake of it    I    could chill you out and...

e|---------------------------------------------------------------------------|
B|---------------------------------------------------------------------------|
G|---------------------------------------------------------------------------|
D|-----------------------------------------7-----------7---------------------|
A|--5-----5---7---5---5/7---5------------------------------------------------|
D|--5-----5---5---5--------------------7-------7--7--------------------------|

e|---------------------------------------------------------------------------|
B|---------------------------------------------------------------------------|
G|---------------------------------------------------------------------------|
D|---------------------------------------------------------------------------|
A|--5-----5---7---5---5/7---5-------5-----5---7---5---5/7---5----------------|
D|--5-----5---5---5-----------------5-----5---5---5--------------------------|


e|---------------------------------------------------------------------------|
B|---------------------------------------------------------------------------|
G|---------------------------------------------------------------------------|
D|-------------------------------------7-------9--------10-------12----------|
A|--5-----5---7---5---5/7---5------------------------------------------------|
D|--5-----5---5---5----------------7-----7--9-----9--10----10--12----12------|


[Chorus] (Roughly the strumming pattern, do whatever suits)

e|-----3-----2--2----3--3--3--3--3--3--3--3----------------------------------|
B|-----3-----3--3----0--0--0--0--0--0--0--0----------------------------------|
G|-----2-----2--2----0--0--0--0--0--0--0--0----------------------------------|
D|--0--0-----0--0----x--x--x--x--0--0--0--0----------------------------------|
A|--0--0-----0--0----5--5--5--5--x--x--x--x----------------------------------|
D|--0--0-----0--0----5--5--5--5--4--4--4--4----------------------------------| x3


e|-----3-----2--2------------------------------------------------------------|
B|-----3-----3--3------------------------------------------------------------|
G|-----2-----2--2----11-11-11-11-9--9--9--9----------------------------------|
D|--0--0-----0--0----9--9--9--9--7--7--7--7----------------------------------|
A|--0--0-----0--0----9--9--9--9--7--7--7--7----------------------------------|
D|--0--0-----0--0----9--9--9--9--7--7--7--7----------------------------------|

[Guitar Solo Chords]

e|--0--------0-------3----------------------------------------------------------|
B|--0--------0-------0----------------------------------------------------------|
G|--4--------2-------0----------------------------------------------------------|
D|--4--------2-------x----------------------------------------------------------|
A|--2--------0-------5----------------------------------------------------------|
D|----------(0)------5----------------------------------------------------------|

************************************

| x   Dead note
| g   Grace note
| (n) Optional
| h   Hammer-on
| p   Pull-off
| r   Release
| >   Accented note
| t   Tapping
| b   Bend
| br  Bend release
| pb  Pre-bend
| pbr Pre-bend release
| /   Slide up
| \   Slide down
| ~   Vibrato
| s   Slap
| P   Pop
| PM  Palm mute
| TR  Trill
| N   Tremolo

************************************
Suggest correction
comments
print report bad tab
5 comments total. Showing first comments.
0 reply
includo 57 Aug 31, 2016 01:07 PM

Rest seems perfect, however in the intro/main riff i am pretty sure both strings are open!

+1 reply
MrTibbs 34 Aug 31, 2016 06:14 PM

He seems to be playing that tab in their live performance here: https://www.youtube.com/watch?v=Dv2ve9LiVb0

0 reply
jav_ier_16 38 Sep 01, 2016 06:08 AM

yep this is perfect

guest
You may want to rate the tab now too:
select rating
Wanna post a correction for this tab? Suggest correction