Oops, an error
Loading. Please wait.

Twice tab

version 1
version 1

Whole song

7,187 views 99 this week
no commentswrite comment
1 2 3 4 5
x 8
add to favorites
×
Save as Personal and add changes to this tab that will be seen only by you. Learn more ›
×
You can save this tab as Personal to edit and correct it or add notes. All changes will be seen only by you. Learn more »
launch autoscroll
font size
0
reset
how to read this tab
guitar tuner
edit
Autoscroll
slow
fast
+/-
esc
set tempo
stop
Author
Difficulty
[Intro]
     (C)    (Em)     (F)
e|---------------------------------------------------------------------------|
B|---------------------------------------------------------------------------|
G|---5----------------------------------------------------------------------
D|---5--X16---2------3-------------------------------------------------------   X2
A|---3--------2--X8--3--X8---------------------------------------------------
E|------------0------1---------------------------------------------------------|


[Verse] - Just Bass but you can palm mute the following chords
    (C)      (F)      (C)    (Am)    (G)
e|---------------------------------------------------------------------------|
B|---------------------------------------------------------------------------|
G|---5-----------------5-------------------------------------------------------|
D|---5--X32---3--------5-X16---7------5---------------------------------------
A|---3--------3--X16---3-------7-X16--5--X16-------------------------------------
E|------------1----------------5------3-----------------------------------------|

Pre Chorus - Again Just Bass but you can play the following


e|---------------------------------------------------------------------------|
B|---------------------------------------------------------------------------|
G|---------------------------------------------------------------------------| 
D|---------------------------------------------------------------------------| X4
A|--3333---------------------------------------------------------------------
E|--------0000--555-3-1111----------------------------------------------------


[Chorus]
    (C) (Pause)(Em)  (F)
e|----------x-----------------------------------------------------------------|
B|----------X-----------------------------------------------------------------|
G|---5------x------------------------------------------------------------------|
D|---5-X16--x--2------3-------------------------------------------------------  X2
A|---3------X--2--X8--3-X8-----------------------------------------------------
E|----------X--0------1---------------------------------------------------------|

Repeat Verse
Repeat Pre Chorus
Repeat Chorus X4

Solo - The guitar underneath the solo just plays the Chorus chords

e|---------------------------------------------------------------------------|
B|--13h15-15-15-13-13--13h15-15-15-13-13--15br-13----13-15-15br-13----13-15---
G|------------------------------------------------14---------------14----------|
D|---------------------------------------------------------------------------|
A|---------------------------------------------------------------------------|
E|---------------------------------------------------------------------------|

e|---------------------------------------------------------------------------|
B|--15br-13---13h15 15-15-13-13--13h15-15-15-13-13----------------------------
G|---------------------------------------------------------------------------|
D|---------------------------------------------------------------------------|
A|---------------------------------------------------------------------------|
E|---------------------------------------------------------------------------|

e|---------------------------------------------------------------------------|
B|--------------13----15----17-15-13----13-15-13------------------------------
G|-----12-14-12----12----12----------14----------14~~~------------------------
D|--14-------------------------------------------------------------------------|
A|---------------------------------------------------------------------------|
E|---------------------------------------------------------------------------|


[Outro] - Listen to the song for strumming pattern, the song drops in tempo here
   (C)    (Em)  (Am)   (F)
e|---------------------------------------------------------------------------|
B|---------------------------------------------------------------------------|
G|--5------------------------------------------------------------------------
D|--5--X4--2-----7------3-----------------------------------------------------  Till the End
A|--3------2-X4--7--X4--3--X4--------------------------------------------------
E|---------0-----5------1-------------------------------------------------------|

Lead Guitar - After X8 of the above chords play the following

e|---------------------------------------------------------------------------|
B|---------------------------------------------------------------------------|
G|---------------------------------------------------------------------------|
D|---5--7--10--7--10--7~~~--5~~-7--10--7--5-----------------------------------  X4
A|-------------------------------------------7--5--3---------------------------
E|---------------------------------------------------------------------------|

End On


e|-----------
B|-----------
G|--5--------
D|--5--------
A|--3--------
E|-----------

Or for second Guitar

e|-----------
B|-----------
G|-----------
D|-----------
A|--3~~~~----
E|-----------

************************************

| x   Dead note
| g   Grace note
| (n) Ghost note
| h   Hammer-on
| p   Pull-off
| r   Release
| >   Accented note
| t   Tapping
| b   Bend
| br  Bend return
| pb  Pre-bend
| pbr Pre-bend release
| /   Slide up
| \   Slide down
| ~   Vibrato
| s   Slap
| P   Pop
| PM  Palm mute
| TR  Trill
| N   Tremolo

************************************

            
            
Suggest correction
Creating personal tab
Creating personal tab
You can edit any tab online and save it as your Personal.

You can edit, replace or remove any tab part or add personal notes – all changes will be seen only by you.

Personal tabs can be accessed anytime from any device, even offline.
Learn more »
comments
print report bad tab
guest
You may want to rate the tab now too:
select rating
Wanna post a correction for this tab? Suggest correction