Oops, an error
Loading. Please wait.

Mr Blue tab

version 1
version 1

Whole song

2,870 views 1 this week
no commentswrite comment
1 2 3 4 5
3 more votes to show rating
add to favorites
×
Save as Personal and add changes to this tab that will be seen only by you. Learn more ›
×
You can save this tab as Personal to edit and correct it or add notes. All changes will be seen only by you. Learn more »
launch autoscroll
font size
0
reset
how to read this tab
guitar tuner
edit
Autoscroll
slow
fast
+/-
esc
set tempo
stop
Author
Difficulty
This is my first tabulature here...so it may not be very good.
Guitar tuned to EADGBE

The strumming i think it's smth like this.
I will use \ for down and / for up

    \ \ /  / \ /
e---6-6-6--6-6-6-------------------------------|
B---6-6-6--6-6-6-------------------------------|
G---7-7-7--7-7-7-------------------------------|
D---8-8-8--8-8-8-------------------------------|    X 4
A---8-8-8--8-8-8-------------------------------|
E---6-6-6--6-6-6-------------------------------|


    \ \ /  / \ /
e---3-3-3--3-3-3-------------------------------|
B---4-4-4--4-4-4-------------------------------|
G---3-3-3--3-3-3-------------------------------|
D---x-x-x--x-x-x-------------------------------|    X 2
A---x-x-x--x-x-x-------------------------------|
E---x-x-x--x-x-x-------------------------------|

Try not to hit the chords with the x :P


    \ \ /  / \ /
e---1-1-1--1-1-1-------------------------------|
B---1-1-1--1-1-1-------------------------------|
G---2-2-2--2-2-2-------------------------------|
D---3-3-3--3-3-3-------------------------------|    X 1
A---3-3-3--3-3-3-------------------------------|
E---1-1-1--1-1-1-------------------------------|

From here u go to the begining

I hope u enjoy and i hope i made it pretty accurate...
If u have anything to add...just mail me at firegod_darkfire@yahoo.com

            
            
Suggest correction
Creating personal tab
Creating personal tab
You can edit any tab online and save it as your Personal.

You can edit, replace or remove any tab part or add personal notes – all changes will be seen only by you.

Personal tabs can be accessed anytime from any device, even offline.
Learn more »
Give kudos to tab author, rate the tab!
1 2 3 4 5
comments
print report bad tab
guest
You may want to rate the tab now too:
select rating
Wanna post a correction for this tab? Suggest correction