Oops, an error
Loading. Please wait.

Mr Blue tab

version 2
version 2

Whole song

826 views 1 this week
no commentswrite comment
1 2 3 4 5
3 more votes to show rating
add to favorites
×
Save as Personal and add changes to this tab that will be seen only by you. Learn more ›
×
You can save this tab as Personal to edit and correct it or add notes. All changes will be seen only by you. Learn more »
launch autoscroll
font size
0
reset
how to read this tab
guitar tuner
edit
Autoscroll
slow
fast
+/-
esc
set tempo
stop
Author
Chords may be named a bit wrong as my theory is naff - but if you follow the tabs it 
vaguely similar :P Comments and corrections welcome. Contact: www.spoonboycomics.co.uk


e|---------|---------|---------|---------|
B|---3-3-3-|---3-3-3-|---3-3-3-|---3-3-3-|
G|---3-3-3-|---3-3-3-|---3-3-3-|---3-3-3-|
D|---------|---------|---------|---------|
A|-1-------|-0-------|---------|---------|
E|---------|---------|-3-------|-1-------|
|| Bb      | Bb/A    | Bb/G    | Bb/F    |
||||||||||||||||||||||||||||||||||||||||||

e|---------|---------|---------|---------|
B|---------|---------|---------|---------|
G|---7-7-7-|-7-7-7-7-|---7-7-7-|-7-7-7-7-|
D|---8-8-8-|-8-8-8-8-|---8-8-8-|-8-8-8-8-|
A|-6-------|---------|-8-------|---------|
E|---------|---------|---------|---------|
|| Bb      |         | Bb/C    |         |
||||||||||||||||||||||||||||||||||||||||||

Mr. Blue,
I told you that I love you
Please believe me

Mr. Blue,
I have to go now, darling
Don't be angry

I know that you're tired
Know that you're sore and sick and sad for some reason
So I leave you with a smile
Kiss you on the cheek
and you will call it treason

That's the way it goes some days
A fever comes at you without a warning
And I can see it in your face
You've been waiting to break since you woke up this morning

Mr. Blue,
Don't hold your head so low
That you can't see the sky

Mr. Blue,
It ain't so long since you were flying high

Mr. Blue,
I told you that I love you
Please believe me
Suggest correction
Creating personal tab
Creating personal tab
You can edit any tab online and save it as your Personal.

You can edit, replace or remove any tab part or add personal notes – all changes will be seen only by you.

Personal tabs can be accessed anytime from any device, even offline.
Learn more »
Give kudos to tab author, rate the tab!
1 2 3 4 5
comments
print report bad tab
guest
You may want to rate the tab now too:
select rating
Wanna post a correction for this tab? Suggest correction