Oops, an error
Loading. Please wait.

Texture tab

46 views 9 this week
no commentswrite comment
1 2 3 4 5
2 more votes to show rating
add to favorites
×
Save as Personal and add changes to this tab that will be seen only by you. Learn more ›
×
You can save this tab as Personal to edit and correct it or add notes. All changes will be seen only by you. Learn more »
launch autoscroll
font size
0
reset
how to read this tab
guitar tuner
edit
Autoscroll
slow
fast
+/-
esc
set tempo
stop
About this tab version
There was no tabs for this amazing song, so i tabbed out myself. Was this info helpful? Yes No
This is my rendition of "Texture" off the awesome album "Ferment" by Catherine Wheel, amazing album
to play this song you need a couple of effects, tipical of Shoegaze music, in this case you need Reverb,
Distortion, Chorus and maybe an Overdrive, on some parts like the verse and the bridge.

Lead Guitar is Guitar 1 (Brian Futter)
Rhythm Guitar is Guitar 2 (Rob Dickinson)

(Guitar 1)
[Intro]
E|-------------------------------------|
B|---5-5-5-5---------3-3-3-3-----------|
G|-----------5-5-5-5---------4-4-4-4---|
D|-------------------------------------|
A|-------------------------------------|
E|-------------------------------------|

(Then the whole band enters and the second guitar plays this:)
(Guitar 2:) 
E|----0-0--0-0-0-0--0-0-0-0--0-0-0-0--0-0-0-0--0-0-0-0--0-0-0-0--0-0-0-0--|
B|----1-1--0-0-0-0--1-1-1-1--0-0-0-0--1-1-1-1--0-0-0-0--1-1-1-1--0-0-0-0--|
G|----0-0--0-0-0-0--0-0-0-0--0-0-0-0--0-0-0-0--0-0-0-0--0-0-0-0--0-0-0-0--|
D|----2-2--2-2-2-2--2-2-2-2--2-2-2-2--2-2-2-2--2-2-2-2--2-2-2-2--2-2-2-2--|
A|----3-3--2-2-2-2--3-3-3-3--2-2-2-2--3-3-3-3--2-2-2-2--3-3-3-3--2-2-2-2--|
E|----0-0--0-0-0-0--0-0-0-0--0-0-0-0--0-0-0-0--0-0-0-0--0-0-0-0--0-0-0-0--|

The strumming is not exact, just listen to the song and play

[Pre-verse]
(Both Guitars:)
E|----0-0-0---0-0-0---3-3-3---2-2-2---|
B|----1-1-1---0-0-0---3-3-3---3-3-3---|
G|----2-2-2---2-2-2---0-0-0---2-2-2---|
D|----2-2-2---2-2-2---0-0-0---0-0-0---|  (x3)
A|----0-0-0---0-0-0---2-2-2---0-0-0---|
E|--------------------3-3-3---x-x-x---|

Last Time 

E|----0-0-0---0-0-0---3-3-3---2---|
B|----1-1-1---0-0-0---3-3-3---3---|
G|----2-2-2---2-2-2---0-0-0---2---|
D|----2-2-2---2-2-2---0-0-0---0---| 
A|----0-0-0---0-0-0---2-2-2---0---|
E|--------------------3-3-3---x---|

[Verse]
(Both Guitars:)
E|----0---0-0---2---2-2---0---0-0---0---0-0--|
B|----1---1-1---3---3-3---1---1-1---0---0-0--|
G|----0---0-0---2---2-2---0---0-0---0---0-0--|
D|----2---2-2---0---0-0---2---2-2---2---2-2--|  (x2)
A|----3---3-3---0---0-0---3---3-3---2---2-2--|
E|----0---0-0---x---x-x---0---0-0---0---0-0--|

No Distortion 

E|----0-0-0-0---2-2-2-3---0-0-0-0---0-0-0-0--|
B|----1-1-1-1---3-3-3-3---1-1-1-1---0-0-0-0--|
G|----0-0-0-0---2-2-2-2---0-0-0-0---0-0-0-0--|
D|----2-2-2-2---0-0-0-0---2-2-2-2---2-2-2-2--|  (x2)
A|----3-3-3-3---0-0-0-0---3-3-3-3---2-2-2-2--|
E|----0-0-0-0---x-x-x-x---0-0-0-0---0-0-0-0--|

With Distortion

[Chorus]
(Both Guitars:)
E|----0-0-0---0-0-0---3-3-3---2-2-2---0-0-0-0--|
B|----1-1-1---0-0-0---3-3-3---3-3-3---0-0-0-0--|
G|----2-2-2---2-2-2---0-0-0---2-2-2---0-0-0-0--|
D|----2-2-2---2-2-2---0-0-0---0-0-0---2-2-2-2--|  
A|----0-0-0---0-0-0---2-2-2---0-0-0---2-2-2-2--|
E|--------------------3-3-3---x-x-x---0-0-0-0--|

E|----0-0-0---0-0-0---3-3-3---2-2-2---|
B|----1-1-1---0-0-0---3-3-3---3-3-3---|
G|----2-2-2---2-2-2---0-0-0---2-2-2---|
D|----2-2-2---2-2-2---0-0-0---0-0-0---|  (x2)
A|----0-0-0---0-0-0---2-2-2---0-0-0---|
E|--------------------3-3-3---x-x-x---|

E|----0-0-0---0-0-0---3-3-3---2-2-2---0-0-0-0--|
B|----1-1-1---0-0-0---3-3-3---3-3-3---0-0-0-0--|
G|----2-2-2---2-2-2---0-0-0---2-2-2---0-0-0-0--|
D|----2-2-2---2-2-2---0-0-0---0-0-0---2-2-2-2--|  
A|----0-0-0---0-0-0---2-2-2---0-0-0---2-2-2-2--|
E|--------------------3-3-3---x-x-x---0-0-0-0--|

E|----0-0-0---0-0-0---3-3-3---2-2-2---|
B|----1-1-1---0-0-0---3-3-3---3-3-3---|
G|----2-2-2---2-2-2---0-0-0---2-2-2---|
D|----2-2-2---2-2-2---0-0-0---0-0-0---|  (x2)
A|----0-0-0---0-0-0---2-2-2---0-0-0---|
E|--------------------3-3-3---x-x-x---|

[Pre-Verse 2]
(Guitar 1)
E|-------------------------------------|
B|---5-5-5-5---------3-3-3-3-----------|
G|-----------5-5-5-5---------4-4-4-4---|
D|-------------------------------------|
A|-------------------------------------|
E|-------------------------------------|

(Guitar 2)
E|----0-0-0-0----0-0-0-0----0-0-0-0---0-0-0-0--|
B|----1-1-1-1----0-0-0-0----1-1-1-1---0-0-0-0--|
G|----0-0-0-0----0-0-0-0----0-0-0-0---0-0-0-0--|
D|----2-2-2-2----2-2-2-2----2-2-2-2---2-2-2-2--|
A|----3-3-3-3----2-2-2-2----3-3-3-3---2-2-2-2--|
E|----0-0-0-0----0-0-0-0----0-0-0-0---0-0-0-0--|

[Verse 2]
E|----0---0-0---2---2-2---0---0-0---0---0-0--|
B|----1---1-1---3---3-3---1---1-1---0---0-0--|
G|----0---0-0---2---2-2---0---0-0---0---0-0--|
D|----2---2-2---0---0-0---2---2-2---2---2-2--|  (x2)
A|----3---3-3---0---0-0---3---3-3---2---2-2--|
E|----0---0-0---x---x-x---0---0-0---0---0-0--|

(Same deal on this verse)
E|----0-0-0-0---2-2-2-3---0-0-0-0---0-0-0-0--|
B|----1-1-1-1---3-3-3-3---1-1-1-1---0-0-0-0--|
G|----0-0-0-0---2-2-2-2---0-0-0-0---0-0-0-0--|
D|----2-2-2-2---0-0-0-0---2-2-2-2---2-2-2-2--|  (x2)
A|----3-3-3-3---0-0-0-0---3-3-3-3---2-2-2-2--|
E|----0-0-0-0---x-x-x-x---0-0-0-0---0-0-0-0--|

[Chorus]
(Both Guitars)
E|----0-0-0---0-0-0---3-3-3---2-2-2---0-0-0-0--|
B|----1-1-1---0-0-0---3-3-3---3-3-3---0-0-0-0--|
G|----2-2-2---2-2-2---0-0-0---2-2-2---0-0-0-0--|
D|----2-2-2---2-2-2---0-0-0---0-0-0---2-2-2-2--|  
A|----0-0-0---0-0-0---2-2-2---0-0-0---2-2-2-2--|
E|--------------------3-3-3---x-x-x---0-0-0-0--|

E|----0-0-0---0-0-0---3-3-3---2-2-2---|
B|----1-1-1---0-0-0---3-3-3---3-3-3---|
G|----2-2-2---2-2-2---0-0-0---2-2-2---|
D|----2-2-2---2-2-2---0-0-0---0-0-0---|  (x2)
A|----0-0-0---0-0-0---2-2-2---0-0-0---|
E|--------------------3-3-3---x-x-x---|

E|----0-0-0---0-0-0---3-3-3---2-2-2---0-0-0-0--|
B|----1-1-1---0-0-0---3-3-3---3-3-3---0-0-0-0--|
G|----2-2-2---2-2-2---0-0-0---2-2-2---0-0-0-0--|
D|----2-2-2---2-2-2---0-0-0---0-0-0---2-2-2-2--|  
A|----0-0-0---0-0-0---2-2-2---0-0-0---2-2-2-2--|
E|--------------------3-3-3---x-x-x---0-0-0-0--|

[Bridge]
(Figuring out what Guitar 1 plays, if you know let me know)
(Guitar 2)
E|----0-0-0---0-0-0---3-3-3---2-2-2---|
B|----1-1-1---0-0-0---3-3-3---3-3-3---|
G|----2-2-2---2-2-2---0-0-0---2-2-2---|
D|----2-2-2---2-2-2---0-0-0---0-0-0---|  (x6)
A|----0-0-0---0-0-0---2-2-2---0-0-0---|
E|--------------------3-3-3---x-x-x---|

E|----0-0-0-0---2-2-2-3---0-0-0-0---0-0-0-0--|
B|----1-1-1-1---3-3-3-3---1-1-1-1---0-0-0-0--|
G|----0-0-0-0---2-2-2-2---0-0-0-0---0-0-0-0--|
D|----2-2-2-2---0-0-0-0---2-2-2-2---2-2-2-2--| 
A|----3-3-3-3---0-0-0-0---3-3-3-3---2-2-2-2--|
E|----0-0-0-0---x-x-x-x---0-0-0-0---0-0-0-0--|

(Both Guitars:)
(No Distortion here, if you have an Overdrive use it)
E|-----0-----0-----3-----2-----|
B|-----1-----0-----3-----3-----|
G|-----2-----2-----0-----2-----|
D|-----2-----2-----0-----0-----|  (x2)
A|-----0-----0-----2-----0-----|
E|-----------------3-----x-----|

E|-----0-----0-----3-----2----0--0--0--0--|
B|-----1-----0-----3-----3----0--0--0--0--|
G|-----2-----2-----0-----2----0--0--0--0--|
D|-----2-----2-----0-----0----2--2--2--2--|  
A|-----0-----0-----2-----0----2--2--2--2--|
E|-----------------3-----x----0--0--0--0--|

E|-----0-----0-----3-----2-----|
B|-----1-----0-----3-----3-----|
G|-----2-----2-----0-----2-----|
D|-----2-----2-----0-----0-----|  (x2)
A|-----0-----0-----2-----0-----|
E|-----------------3-----x-----|

E|-----0-----0-----3-----2----0--0--0--0--|
B|-----1-----0-----3-----3----0--0--0--0--|
G|-----2-----2-----0-----2----0--0--0--0--|
D|-----2-----2-----0-----0----2--2--2--2--|  
A|-----0-----0-----2-----0----2--2--2--2--|
E|-----------------3-----x----0--0--0--0--|

[Final Chorus]
(Both Guitars:)
E|----0-0-0---0-0-0---3-3-3---2-2-2---|
B|----1-1-1---0-0-0---3-3-3---3-3-3---|
G|----2-2-2---2-2-2---0-0-0---2-2-2---|
D|----2-2-2---2-2-2---0-0-0---0-0-0---|  (x2)
A|----0-0-0---0-0-0---2-2-2---0-0-0---|
E|--------------------3-3-3---x-x-x---|

E|----0-0-0---0-0-0---3-3-3---2-2-2---0-0-0-0--|
B|----1-1-1---0-0-0---3-3-3---3-3-3---0-0-0-0--|
G|----2-2-2---2-2-2---0-0-0---2-2-2---0-0-0-0--|
D|----2-2-2---2-2-2---0-0-0---0-0-0---2-2-2-2--|  
A|----0-0-0---0-0-0---2-2-2---0-0-0---2-2-2-2--|
E|--------------------3-3-3---x-x-x---0-0-0-0--|

E|----0-0-0---0-0-0---3-3-3---2-2-2---|
B|----1-1-1---0-0-0---3-3-3---3-3-3---|
G|----2-2-2---2-2-2---0-0-0---2-2-2---|
D|----2-2-2---2-2-2---0-0-0---0-0-0---|  (x2)
A|----0-0-0---0-0-0---2-2-2---0-0-0---|
E|--------------------3-3-3---x-x-x---|

E|----0-0-0---0-0-0---3-3-3---2-2-2---0-0-0-0--|
B|----1-1-1---0-0-0---3-3-3---3-3-3---0-0-0-0--|
G|----2-2-2---2-2-2---0-0-0---2-2-2---0-0-0-0--|
D|----2-2-2---2-2-2---0-0-0---0-0-0---2-2-2-2--|  
A|----0-0-0---0-0-0---2-2-2---0-0-0---2-2-2-2--|
E|--------------------3-3-3---x-x-x---0-0-0-0--|

[Outro]
E|----0-0-0---0-0-0---3-3-3---2-2-2---|
B|----1-1-1---0-0-0---3-3-3---3-3-3---|
G|----2-2-2---2-2-2---0-0-0---2-2-2---|
D|----2-2-2---2-2-2---0-0-0---0-0-0---|  (x4)
A|----0-0-0---0-0-0---2-2-2---0-0-0---|
E|--------------------3-3-3---x-x-x---|

E|----0---|
B|----1---|
G|----2---|
D|----2---|
A|----0---|
E|--------|



************************************

| x  Dead note

************************************
Suggest correction
Creating personal tab
Creating personal tab
You can edit any tab online and save it as your Personal.

You can edit, replace or remove any tab part or add personal notes – all changes will be seen only by you.

Personal tabs can be accessed anytime from any device, even offline.
Learn more »
Give kudos to tab author, rate the tab!
1 2 3 4 5
comments
print report bad tab
guest
You may want to rate the tab now too:
select rating
Wanna post a correction for this tab? Suggest correction