Oops, an error
Loading. Please wait.

Hoochie Tab

229 views 1 this week
no commentswrite comment
1 2 3 4 5
please rate
add to favorites
launch autoscroll
font size
0
reset
how to read this tab
guitar tuner
Tab Pro tools
  • play this tab
  • loop segment
  • change instrument
  • show fretboard
  • metronome
Autoscroll
slow
fast
+/-
esc
set tempo
stop
Contributor
Cathy Davey-Hoochie
Tabber: L.A.RAI


E----------------------------------------------------|
B----------------------------------------------------|
G----------------------------------------------------|
D----------------------------------------------------|
A---5-r-3-------------5-r-3-----------3--------------|
E----------5--3--5/----------5--3--5-----------------|


E---------------------------------------------|
B---------------------------------------------|
G---------------------------------------------|
D---------------------------------------------|
A--5--5--3--5------5--5--3----5---7-----------|
E---------------------------------------------|


E----------------------------------------------------------------------------|
B----------------------------------------------------------------------------|
G----------------------------------------------------------------------------|
D--------------------------------------------------------5-5----5-6----------|
A----5-r-3------------5-r-3--------3-----7--7-5--7-----------7---------------|
E----------5--3--5/----------5-3-5-------------------------------------------|

E---------------------------------------------------------------------------|
B---------------------------------------------------------------------------|
G---------------------------------------------------------------------------|
D--12-r-10------------------12r-10---------------10-------------------------|
A-------------12--10--12/-----------12----10--12----------------------------|
E---------------------------------------------------------------------------|

SOLO:
E----------------------------------------------------------------------------|
B----------------------------------------------------------------------------|
G------------9--8----------------9-9-9-9--8-------------------7--6-----------|
D------------------8--7-----------------------8--7---6--7---------7-6--------|
A--5--6-7--------------------6-7---------------------------------------------|
E----------------------------------------------------------------------------|

E--------------------------|
B--------------------------|
G------9-9-9-8-------------|
D---------------8--7--6-7--|
A-7-8----------------------|
E--------------------------|

E---------------------------------------------------------|
B---------------------------------------------------------|
G---7-r-5--------------7-r-5-----------7------------------|
D-----------7--5--7/----------7--5--7---------------------|
A---------------------------------------------------------|
E---------------------------------------------------------|
comments
We did not receive enough feedback on this tab! Please rate:
print report bad tab
1 2 3 4 5
I want to post or [tab]
guest
You may want to rate the tab now too:
select rating
Please do not post tabs as comments. Select "correction" instead!