Oops, an error
Loading. Please wait.

Waterloo Sunset bass

19 views 1 this week
no commentswrite comment
1 2 3 4 5
3 more votes to show rating
add to favorites
×
Save as Personal and add changes to this tab that will be seen only by you. Learn more ›
×
You can save this tab as Personal to edit and correct it or add notes. All changes will be seen only by you. Learn more »
launch autoscroll
font size
0
reset
guitar tuner
edit
Autoscroll
slow
fast
+/-
esc
set tempo
stop
Waterloo Sunset
This version by singer/songwriter Cathy Dennis peaked at number 11 in UK 
Chart 1997. Tab by bass50611. This is a great cover version of The Kinks
Classic. Not exact but very close to this original recording.

Intro:
G|----------------------------------------------------------------|
D|----------------------------------------------------------------|
A|-7---7-5---5-4---4---------------------------------------7--7-7-|
E|-------------------7---7-5---5-4---4-2---2-0---0-5--5-5---------|

G|------------------|
D|------------------|
A|-5--5-5--5-5--5-5-|
E|------------------|

Verse 1:
G|----------------------------------------------------------------------|
D|----------------------------------------------------------------------|
A|---------7--7-7---5--5-5--5-5--5-5----------7--7-7---5--5-5--5-5--5-5-|
E|-5--5-5-----------------------------5--5-5----------------------------|
                                                                ‘.’
G|-----------------------------------------------------------------|
D|-----------------------------------------------------------------|
A|-2--2-2---4--4-4---5--5-5---7--7-7----------7--7-7---5--5-5--5-5-|
E|------------------------------------5--5-5-----------------------|

Chorus:
G|-----------------------------------------------------------------------|
D|-----------------------------------------------------------------------|
A|-5-4--2--2--0--0----------------------------5-4--2--2--0--0------------|
E|-----------------4--4--2--2--0--0--0--0---5-----------------4--4--2--2-|

G|----------------------------------------------|
D|-2--2--0--0-----------------------------------|
A|------------4--4--2--2--0--0------------------|
E|-----------------------------4--4--2--2--0--0-|

Verse 2:
G|----------------------------------------------------------------------|
D|----------------------------------------------------------------------|
A|---------7--7-7---5--5-5--5-5--5-5----------7--7-7---5--5-5--5-5--5-5-|
E|-5--5-5-----------------------------5--5-5----------------------------|
                                                                ‘.’
G|-----------------------------------------------------------------|
D|-----------------------------------------------------------------|
A|-2--2-2---4--4-4---5--5-5---7--7-7----------7--7-7---5--5-5--5-5-|
E|------------------------------------5--5-5-----------------------|

Chorus:
G|-----------------------------------------------------------------------|
D|-----------------------------------------------------------------------|
A|-5-4--2--2--0--0----------------------------5-4--2--2--0--0------------|
E|-----------------4--4--2--2--0--0--0--0---5-----------------4--4--2--2-|

G|----------------------------------------------|
D|-2--2--0--0-----------------------------------|
A|------------4--4--2--2--0--0------------------|
E|-----------------------------4--4--2--2--0--0-|

Verse 3:
G|----------------------------------------------------------------------|
D|----------------------------------------------------------------------|
A|---------7--7-7---5--5-5--5-5--5-5----------7--7-7---5--5-5--5-5--5-5-|
E|-5--5-5-----------------------------5--5-5----------------------------|

G|----------------------------------------------------------------------|
D|----------------------------------------------------------------------|
A|-2--2-2---4--4-4---5--5-5---7--7-7----------7--7-7---5--5-5--5-5--5-5-|
E|------------------------------------5--5-5----------------------------|

G|-----------------------------------|
D|-----------------------------------|
A|---------7--7-7---5--5-5--5-5--5-5-|
E|-5--5-5----------------------------|

Outro:  (Repeat Outro To Fade/End)
G|-------------------------------------------------|
D|-------------------------------------------------|
A|-7--7--7--7--7--7--7--7---7--7--7--7--7--7--7--7-|
E|-------------------------------------------------|

G|-------------------------------------9-7-6-------|
D|-------------------------------------------9-7-6-|
A|-7--7--7--7--7--7--7--7---7--7--7--7-------------|
E|-------------------------------------------------|

Symbol ‘.’ Pauses




            
            
Suggest correction
Creating personal tab
Creating personal tab
You can edit any tab online and save it as your Personal.

You can edit, replace or remove any tab part or add personal notes – all changes will be seen only by you.

Personal tabs can be accessed anytime from any device, even offline.
Learn more »
Give kudos to tab author, rate the tab!
1 2 3 4 5
comments
print report bad tab
guest
You may want to rate the tab now too:
select rating
Wanna post a correction for this tab? Suggest correction