Oops, an error
Loading. Please wait.

Batalla tab

version 1
version 1

Whole song

18 views 1 this week
no commentswrite comment
1 2 3 4 5
3 more votes to show rating
add to favorites
×
Save as Personal and add changes to this tab that will be seen only by you. Learn more ›
×
You can save this tab as Personal to edit and correct it or add notes. All changes will be seen only by you. Learn more »
launch autoscroll
font size
0
reset
how to read this tab
guitar tuner
edit
Autoscroll
slow
fast
+/-
esc
set tempo
stop
E||-----------------------------||
B||-----------------------------||
G||--3p2-3p2------3p2-3p2-------||
D||-----------3------------3----||x2
A||-----------3------------3----||
E||-----------0h1----------0h1--||

E||------------||
B||------------||
G||------------||
D||--3---------||x4
A||--3---------||
E||--1---------||

E||-----------------------------||
B||-----------------------------||
G||--3p2-3p2------3p2-3p2-------||
D||-----------3------------3----||x2
A||-----------3------------3----||
E||-----------0h1----------0h1--||

 F5          F5           F5
Un infierno, un tormento, resetear...

F5
Me destierro a las sombras
caigo en mi propia trampa
batallo en el tormento
cambio de roll en medio del juego.
Cuenta de regresion
se activan piel y huesos
giro la llave
cambio de tiempo.

F5           F5           F5
Un infierno, un tormento, resetear...

F5
Desactivo los parpados
activo el sueño
un espejo me devuelve inverso
sueño ciencia ficcion
transpiro, me irrito
un peligro encuentro
MI piel erizo
alguien me resetea o soy yo mismo
resetear todo
reiniciar el ciclo.

            
            
Suggest correction
Creating personal tab
Creating personal tab
You can edit any tab online and save it as your Personal.

You can edit, replace or remove any tab part or add personal notes – all changes will be seen only by you.

Personal tabs can be accessed anytime from any device, even offline.
Learn more »
Give kudos to tab author, rate the tab!
1 2 3 4 5
comments
print report bad tab
guest
Wanna post a correction for this tab? Suggest correction