Oops, an error
Loading. Please wait.

El Lugar tab

version 2
version 2

Whole song

16 views 6 this week
no commentswrite comment
1 2 3 4 5
3 more votes to show rating
add to favorites
×
Save as Personal and add changes to this tab that will be seen only by you. Learn more ›
×
You can save this tab as Personal to edit and correct it or add notes. All changes will be seen only by you. Learn more »
launch autoscroll
font size
0
reset
how to read this tab
guitar tuner
edit
Autoscroll
slow
fast
+/-
esc
set tempo
stop
Intro:
   (E5-A5--B5)x3-E5
e:-----------|-----------|-----------|---------|----
B:-----------|-----------|-----------|---------|----
G:-----------|-----------|-----------|---------|----
D:-----2---4-|-----2---4-|-----2---4-|---------|----
A:-2-2-0---2-|-2-2-0---2-|-2-2-0---2-|-2x2-2x2-|----
E:-0-0---0---|-0-0---0---|-0-0---0---|-0x0-0x0-|----

Riff 1
   (E5-A5-B5)
e:-----------|
B:-----------|
G:-----------|
D:-----2---4-|
A:-2-2-0---2-|
E:-0-0---0---|


(Riff 1 se va repitiendo)
A veces no sabés quien sos
no sabés como te llamás
nadie te dijo cual es tu papel
adonde vas (G:-34-34-34-34-3-4)

(Riff 1)
Entonces empesas a buscar
no sabés donde,lo haces en los demás
y no podés encontrarte
y estás muy cerca.

Riff 2
   A5      E5  A5      E5   A5     E5-B5
D:------------|-----------|-------------|
A:-55555-4-2-0|55555-4-2-0|55555-4-2-0-2|
E:------------|-----------|-------------|

Estribillo:

(Riff 2)
En un lugar
donde el tiempo no corre
donde nada se llama
donde simplemente sos...

  E5    E           E5
e:-------000-----------|
B:----------000--------|
G:-------------111-----|
D:---------------------|
A:---------------------|
E:-----------------0---|

 E5
Y digo: oooh!! simplemente sos
Y digo: oooh!! simplemente sos
 A5                           E5
Este lugar está muy cerca tuyo
 B5
Muy cerca tuyo digo (punteo sobre riff 1)
-------------------------

 Depués repite todo lo mismo pero con distita letra.

Si alguien saca el punteo que lo mande.
Cualquier duda, sugerencia, puteada, etc., a:
soy_nahuel@
Igual tenganme paciencia, es la primera que mando, y
espero que está bien.
Chau y DALE!!!

            
            
Suggest correction
Creating personal tab
Creating personal tab
You can edit any tab online and save it as your Personal.

You can edit, replace or remove any tab part or add personal notes – all changes will be seen only by you.

Personal tabs can be accessed anytime from any device, even offline.
Learn more »
Give kudos to tab author, rate the tab!
1 2 3 4 5
comments
print report bad tab
guest
Wanna post a correction for this tab? Suggest correction