Oops, an error
Loading. Please wait.

El Numero Imperfecto bass

40 views 1 this week
no commentswrite comment
1 2 3 4 5
3 more votes to show rating
add to favorites
×
Save as Personal and add changes to this tab that will be seen only by you. Learn more ›
×
You can save this tab as Personal to edit and correct it or add notes. All changes will be seen only by you. Learn more »
launch autoscroll
font size
0
reset
guitar tuner
edit
Autoscroll
slow
fast
+/-
esc
set tempo
stop
El Numero Imperfecto
Catupecu Machu
El Numero Imperfecto


Un tema increible con un bajo lindo de tocar....


Estrofa

"En un mismo tiempo pasa un viento hambriento
 Secas son las hojas, el reloj en tiempo de descuento..."

g--------------------------------------------------------------
D--------------------------------------------------------------
A--22-222-2222-222-222-222-2222-222-222-222-222-222-222-22/----
E--------------------------------------------------------------

g---------------------
D---------------------
A--667----------------
E------111112-14*/----  */ vibrar y arrastrar un poco


"Las cruces reciben miles de resos y alguno que escucha lo que estoy
 diciendo..."

g----------------------------------
D-------16----------16---18--16---- (X2)
A--16-18--18---16-18--18---18--18--
E----------------------------------

g--16--16--16--16--16--16--16--16--16--16/--
D----16--16--16--16--16--16--16--16--16----- es un tiempo medio largo
A------------------------------------------- de esto...
E-------------------------------------------


0:31

"Todo sucede a la misma vez en distinto tiempo
 Para algunos veloz para otros muy lento..."

g--------------------------------------------------------------
D--------------------------------------------------------------
A--22-222-2222-222-222-222/7/6/4/222-222-222-222-222-222-22/---
E--------------------------------------------------------------

g---------------------
D---------------------
A--667----------------
E------111112-14*/----


"Algunos tratando de estar bien despiertos y otros a partir de hoy
 durmiendo en nuestros recuerdos..."

g----------------------------------
D-------16----------16---18--16----
A--16-18--18---16-18--18---18--18--
E----------------------------------

g----------------------------------------------
D-------16----------16---18--16----------16----
A--16-18--18---16-18--18---18--18---16-18--18--
E----------------------------------------------

g--16--16--16--16--16--16--16--16--16--16/--
D----16--16--16--16--16--16--16--16--16-----
A-------------------------------------------
E-------------------------------------------


1:02

g----------------1314-14-1314--14/16/14-13/14/13-11--
D----2/-6/-10/-13------------------------------------
A--3-------------------------------------------------
E----------------------------------------------------


1:10
Estribillo

"Suelo dormir y a veces despierto sueños q cansan por ser tan intensos
 Repito mil veces los mismos hechos..."

g-------------------------------------------------------------
D-------------------------------------------------------------
A-------------------------------------------------------------
E--12121212121212121212121212--777-777-7777-777-7777-777-777--

"Suelo dormir y a veces despierto sueños q cansan por ser tan intensos
 Repito mil veces los mismos hechos..."

g---------------------------------------------------------------------
D---------------------------------------------------------------------
A---------------------------------------------------------------------
E--121212/16-1416/-12121/16-1416/21212--777-777-777-777-7777-777-777--


1:52
Estrofa

"En un mismo tiempo lo que ayer eterno
 Entra en otras ropas lo casual desdobla lo tan cierto..."

g--------------------------------------------------------------
D--------------------------------------------------------------
A--22-222-2222-222-222-222-2222-222-222-222-222-222-222-22/----
E--------------------------------------------------------------

g---------------------
D---------------------
A--667----------------
E------111112-14*/----  */ vibrar y arrastrar un poco


"Las curvas que cruzan los planos tan rectos y alguien busca sin
 temor, el numero imperfecto..."

g----------------------------------
D-------16----------16---18--16----
A--16-18--18---16-18--18---18--18--
E----------------------------------

g----------------------------------------------
D-------16----------16---18--16----------16----
A--16-18--18---16-18--18---18--18---16-18--18--
E----------------------------------------------

g--16--16--16--16--16--16--16--16--16--16/--
D----16--16--16--16--16--16--16--16--16-----
A-------------------------------------------
E-------------------------------------------


2:24
Estrofa

"Todo que viene a la misma vez sobre el mismo lienzo
 Es veloz la euforia tanto a veces que ni el recuerdo..."

g--------------------------------------------------------------
D--------------------------------------------------------------
A--22-222-2222-222-222-2222/7/5/4-222-222-222-222-222-222-22/--
E--------------------------------------------------------------

g---------------------
D---------------------
A--667----------------
E------111112-14*/----  */ vibrar y arrastrar un poco


"Entrar en la nada pintando un desierto buscando las palabras que hoy
 relaten lo que estoy viendo..."

g----------------------------------
D-------16----------16---18--16----
A--16-18--18---16-18--18---18--18--
E----------------------------------

g----------------------------------------------
D-------16----------16---18--16----------16----
A--16-18--18---16-18--18---18--18---16-18--18--
E----------------------------------------------

g--16--16--16--16--16--16--16--16--16--16/--
D----16--16--16--16--16--16--16--16--16-----
A-------------------------------------------
E-------------------------------------------


2:57

g----------------1314-14-1314--14/16/14-13/14/13-11--
D----2/-6/-10/-13------------------------------------
A--3-------------------------------------------------
E----------------------------------------------------


3:05
Estribillo

"Suelo dormir y a veces despierto sueños q cansan por ser tan intensos
 Repito mil veces los mismos hechos..."

g---------------------------------------------------------------------
D---------------------------------------------------------------------
A---------------------------------------------------------------------
E--121212/16-1416/-12121/16-1416/21212--777-777-777-777-7777-777-777--


"Suelo dormir y a veces despierto sueños q cansan por ser tan intensos
 Repito mil veces los mismos hechos..."

g---------------------------------------------------------------------
D---------------------------------------------------------------------
A---------------------------------------------------------------------
E--121212/16-1416/-12121/16-1416/21212--777-777-777-777-7777-777-777--


Final

g------------------------------------------------------------------
D------------------------------------------------------------------
A--22-222-222-222-222-222-222-222-222-222-222-222-222-222-222-222--
E------------------------------------------------------------------

g------------------------------------------------------------------
D------------------------------------------------------------------
A--222-222-222-222-222-222-222-222-222-222-222--2---2---2---2---2--
E------------------------------------------------------------------


El final es todo en Si y marca cinco al final del tema...

Fijarse en algunos cambios q mete gabriel en algunos versos y listo..


...Mariano Bria....
....Cordoba Domingo 5 de Abril...
.....Marianorocken@

            
            
Suggest correction
Creating personal tab
Creating personal tab
You can edit any tab online and save it as your Personal.

You can edit, replace or remove any tab part or add personal notes – all changes will be seen only by you.

Personal tabs can be accessed anytime from any device, even offline.
Learn more »
Give kudos to tab author, rate the tab!
1 2 3 4 5
comments
print report bad tab
guest
Wanna post a correction for this tab? Suggest correction