Oops, an error
Loading. Please wait.

Elevador bass

version 2
version 2

Whole song

65 views 1 this week
no commentswrite comment
1 2 3 4 5
3 more votes to show rating
add to favorites
×
Save as Personal and add changes to this tab that will be seen only by you. Learn more ›
×
You can save this tab as Personal to edit and correct it or add notes. All changes will be seen only by you. Learn more »
launch autoscroll
font size
0
reset
guitar tuner
edit
Autoscroll
slow
fast
+/-
esc
set tempo
stop
este es uno de los temas mas pogueables de catupecu
y a pesar de no tener ni buenas bases ni buena letra
esta re masa:

empieza el bajo solo:

1----------------------------------------------------------
2----------------------------------------------------------
3---3------------3(ds)--------------------------------
4-----5h3p5h3p5--------5h3p5h3p5--------------------

sigue así hasta q empieza la guitarra, y un rato antes de 
empezar a cantar hace esto al compas de la guitarra:

1----------------------------------------------------------
2----------------------------------------------------------
3---33333333333333(2)333333333333333(2)-----
4----------------------------------------------------------

Las notas en parentesis son notas q agregué por q 
qedan bien y porq sino me aburro

toda la cancion sigue así hasta un par de veces en q se 
frena la canción y hace esto:

1-------------------------------------------
2------------------------------------------
3-----3----32-32-3---32-32-3---32-32-3-----------
4-------------------------------------------

y vuelve a empesar todo igual hasta el solo tapping de bajo q es así:

1--------17(ds)-----------------------------------------17----------------------
2---[17]--------15h[17]p15-14(ds)--14-14h15p14h15---[17]---15h[17]p15-14(ds)--
3------------------------------------------------------------------------------------------
4------------------------------------------------------------------------------------------

1--------------------------------------17--------------------------------------
2--[19/17]---15h[17]p15--14-15----[17]----15h[17]p15-14-13-12--------------
3-------------------------------------------------------------15-14-12----
4--------------------------------------------------------------------------------------

(las notas entre corchetes [] son las notas q toco con la mano derecha y el resto
con la izquierda, y de esta forma suena bastante bien)

1-----------------------------------------------------------------------------
2--------------------------------------------------------------------------------
3---15-15151515151515/333333333333333(2)333333333333(2)-----
4-----------------------------------------------------------------------------

arriba de esto va el solo de guitarra en donde suigue todo igual con 
la misma base, y despues de gritar un rato termina la canción

aaaaaaaaangina!!!!!!!!!!!!!!!!!!!!!!!ajjajajja
esto es todo , espero lo entiendan, en si es una boludez,saludos a jim 
milton y cocho: enfermos!!!!!!!!!!!!!!!!!!!!!! aguante bob esponja, eoy, arbol
carajo, cabezones, y smashing pumpkins!!!!!!! 100% antisocial
rock alternativo al palo ( haciendo mosh en la luna) a 160 cm del piso!!!

para correcciones, puteadas, confesiones, peticiones,amenazas de muerte,
conspiraciones, contactos del 3º tipo, reuniones alienigenas, etc.
 este es mi mail: el_teta69@
aguante catupe!!!!!!!!!!!!!100% alterno

            
            
Suggest correction
Creating personal tab
Creating personal tab
You can edit any tab online and save it as your Personal.

You can edit, replace or remove any tab part or add personal notes – all changes will be seen only by you.

Personal tabs can be accessed anytime from any device, even offline.
Learn more »
Give kudos to tab author, rate the tab!
1 2 3 4 5
comments
print report bad tab
guest
Wanna post a correction for this tab? Suggest correction